Oops, an error
Loading. Please wait.

How Crazy tab

by Scandal
55 views 1 this week
no commentswrite comment
1 2 3 4 5
3 more votes to show rating
add to favorites
×
Save as Personal and add changes to this tab that will be seen only by you. Learn more ›
×
You can save this tab as Personal to edit and correct it or add notes. All changes will be seen only by you. Learn more »
launch autoscroll
font size
0
reset
how to read this tab
guitar tuner
edit
Autoscroll
slow
fast
+/-
esc
set tempo
stop
Author
[Intro]
C#m7
e|---4--------4------------|
B|-5---5-4--5---5-4--4-5---|
G|-----------------------4-|
D|-------------------------|
A|-------------------------| 
E|-------------------------| 3x

[Verse]
  C#m7               B
e|----------------------------------------|
B|---5--4----5-4-5---------2----2----2----|
G|----------------4----4-----------4---2-1|
D|----------------------------------------|
A|4--4--4-4---------2---2--2-2------------| 
E|----------------------------------------|

  G#m                    F#
e|------------------------------------------|
B|------------------------------------------|
G|-----------------------------3-----3---3--|
D|--------4----4-44--------------------4---4|
A|--6---------------2-4----4----------------| 
E|-4--4----4-4-----------2---2--2-2---------|

C#m7                       B  
Tsumetai GITA- wo KE-SU ni oshikomu  
                  G#m
Hitodoori wa mada ooi kedo
                    F#
Kyou no kibun wa koko made Getting all right

(Also the power chords are on the verse below)

C#m7 (C#5)                 B (B5)      
Sonkei dekinai otona no ADOBAISU
                 G#m(G#5)                 F#(F#5)
Atashi wa anata mitai ni wa naritakunai to omotta

[Pre-Chorus]
A5                   G#5
Yogoreta JI-NZU de norikonde iru
   F#5                B5
Chikatetsu no mado utsutte iru jibun
   A5                G#5
Kawatte nanka nai ano koro no mama
  F#5            B5        G#5
Okane nante chotto areba ii no yo

[Chorus]
        A5
How Crazy
   G#5        C#5    B5       
Wakatta you ni
            A5       G#5         C#5    B5   
Atashi no koto hanasu no wa yamete yo
        A5
How Crazy
  G#5       C#5    B5       A5       G#5 
Fukai umi ni shizunde yuku fune kara
    C#5    B5  
Nigete kita no
         A5    G#5       C#5    B5
Yume ni love love love itsumo
 A5      G#5    F#5
Junjou ja irarenai How Crazy

[Verse 2]
C#m7          B                        G#m
Ekimae doori chijou e tsudzuite iru kaidan wa
             F#
Itsumo kurakute fuan da
C#m7                           B                        G#m
Yuugure no KONBINI no chuushajou
                        G#m
Asu wo shiranai kodomo ga
                           F#
Chiisaku atashi ni te wo futte iru

[Pre-Chorus 2]
  A5                   G#5
Chie wo tsukenasai shourai makenai you ni
    F#5               B5
Settoku shitai noni umaku hanasenai
   A5               G#5
Sonna n' ja dame nattoku mo dekinai
    F#5         B5        G#5
Oh kamisama chotto fukouhei da tte omou yo

[Chorus]
        A5
How Crazy
   G#5        C#5    B5       
Wakatta you ni
            A5       G#5         C#5    B5   
Atashi no koto hanasu no wa yamete yo
        A5
How Crazy
  G#5       C#5    B5       A5       G#5 
Fukai umi ni shizunde yuku fune kara
    C#5    B5  
Nigete kita no
         A5    G#5       C#5    B5
Yume ni love love love itsumo
   A5    G#5    F#5
Junjou ja irarenai 

[Bridge]
  A5      
Doryoku wo tsudzuketa gakusei datte
 B5           C5             C#5        B5
Kekka ni naranakya kazoku wa kitto kanashimu
 A5
Yowatari jouzu ga umaku wa ittemo
  B5           C5        C#5             B5
Sonna no sonkei dekinai jinsei ~baby
 A5                       G#5
Mujun bakka na kanjou wo ittai
                          F#5
Itsu made kakaete ikite yuku no deshou? 

[Solo]
e|----------7---------------12--------------------------------------------7----|
B|--7-9-7-9---9-7--7-9-7-9-----9-(7)--(8)7---------7-(8)7---------7-9-7-9---9-7|
G|----------------------------------6-----6--9-6-9-------6--9-6-9--------------|
D|-----------------------------------------------------------------------------|
A|-----------------------------------------------------------------------------|
E|-----------------------------------------------------------------------------|

e|-----------12-----------------7------7-9-12-9-12-14-|
B|--7-9-7-9------9-(7)----9---7---7-7-----------------|
G|--------------------6-6---6------9------------------|
D|----------------------------------------------------|
A|----------------------------------------------------|
E|----------------------------------------------------|

[Chorus]
        A5
How Crazy
   G#5        C#5    B5       
Wakatta you ni
            A5       G#5         C#5    B5   
Atashi no koto hanasu no wa yamete yo
        A5
How Crazy
  G#5       C#5    B5       A5       G#5 
Fukai umi ni shizunde yuku fune kara
    C#5    B5  
Nigete kita no
         A5    G#5       C#5    B5
Yume ni love love love itsumo
   A5    G#5    F#5
Junjou ja irarenai 

[Outro]
  C#m7               B
e|----------------------------------------|
B|---5--4----5-4-5---------2----2----2----|
G|----------------4----4-----------4---2-1|
D|----------------------------------------|
A|4--4--4-4---------2---2--2-2------------| 
E|----------------------------------------|

  G#m                    C#m7
e|-------------------------4--|
B|-------------------------5--|
G|-------------------------6--|
D|--------4----4-44--------4--|
A|--6---------------2-4----4--| 
E|-4--4----4-4-------------x--|

C#m7                       B  
Tsumetai GITA- mou ichido sotto
              G#m
Dakikakaete hitori de
                    C#m7
Ano koro mitai ni utatta

************************************

| (n)  Bend 
| x    Dead note

************************************

            
            
Suggest correction
Creating personal tab
Creating personal tab
You can edit any tab online and save it as your Personal.

You can edit, replace or remove any tab part or add personal notes – all changes will be seen only by you.

Personal tabs can be accessed anytime from any device, even offline.
Learn more »
Give kudos to tab author, rate the tab!
1 2 3 4 5
comments
print report bad tab
guest
You may want to rate the tab now too:
select rating
Wanna post a correction for this tab? Suggest correction