Oops, an error
Loading. Please wait.

Image chords

version 1
version 1

Whole song

Interactive

by Scandal
451 views 15 this week
no commentswrite comment
1 2 3 4 5
2 more votes to show rating
add to favorites
×
Save as Personal and add changes to this tab that will be seen only by you. Learn more ›
×
You can save this tab as Personal to edit and correct it or add notes. All changes will be seen only by you. Learn more »
launch autoscroll
font size
0
reset
transpose
0
reset
simplify chords
display chords
guitar tuner
edit
Autoscroll
slow
fast
+/-
esc
set tempo
stop
Author
Strumming
There is no strumming pattern for this song yet. and get +5 IQ
Artist: Scandal
Song: Image
 

Chords used:
 
    E    E5   Esus2    A    A5     B    G#m    G    F#m   C#m   D#
E|--0-----x-----7------0-----x-----2-----4-----3-----2-----4-----6--|
B|--0-----x-----7------2-----x-----4-----4-----3-----2-----5-----8--|
G|--1-----x-----9------2-----2-----4-----4-----4-----2-----6-----8--|
D|--2-----2-----9------2-----2-----4-----6-----5-----4-----6-----8--|
A|--2-----2-----7------0-----0-----2-----6-----5-----4-----4-----6--|
E|--0-----0-----x------------x-----------4-----3-----2--------------|

[Intro]

| E5 | E5 |
| E5 | E5 | A5 | A5 | (x2)
| Esus2 | Esus2 |

[Verse 1]
 
E                 B
Nakidashisou na machi wo se ni
             C#m                        B
Terebi no nyuusu de wa atarashii inochi no tanjou wo
 A       G#m    F#m     B
Minna ga iwai waratteru
              A     E
Konna fuu ni boku datte
      A            B
Umarekawaretara to omotteru
E
Yarinaosu koto mo
B
Kurikaesu koto mo
C#m              B
Kantan ja nai kara
            A       G#m
Sukoshi nayandeiru keredo
 F#m     B          A
Ashita wa umaku yareru tte
    E         A       B
Kokoro no dokoka de omotteru
E                     B
Sutoppu dekinai kara shinchou ni
     A                  B
Imeeji shite asa wo matsu
 

[Chorus]

       E                   B
Me wo akereba atarashii boku ga iru
      C#m                B
Ima kara nandatte egaite ikeru
      A                          G#m
Hakinareta kutsu de itsumo yori keikai ni
      G                 B
Fumidaseba nandemo tobikoerareru
             A        G#m            F#m         B
Imeeji shita risou wa genjitsu yori muzukashii ga
          A      E     A      B
Itsudatte atarashii sutaato wa kireru


[Interlude]

E B A G#m A B (x2)

[Verse 2]

E                B
Naganen kienai nayami goto
C#m                   B
Chiisai koro mi ni tsuita kuse
A                            G#m
Butsuketa kioku mo nai no ni dekita aza mo
  G                 B
Kizukeba issho ni ikite kitanda
C#m                    B
Kyou ga subarashii to ienakatta
       A                B
Ichinichi datta toshitemo


[Chorus]

       E                       B
Mada minu ashita ni araamu wo setto shite
      C#m                 B
Namida wo gutto koraete yume wo miyou
         A                     G#m
Tsuki ya hoshi wa kumo ni oowararete mo
      G                          B
Kawarazu ni kono machi wo terashiteru kara
             A       G#m        F#m        B
Mezashiteita mirai ga ima to chigatteite mo
         A           E       A
Daijoubu donna basho e mo mada jiyuu ni yukeru


[Breakdown]
e|---------------------------------------------------------------|      
B|-------------------------------------------------12------------|       
G|--13-13-13-11---13-13-13-11--------13-13-13-11---11-13-13-11---| 
D|--11-11-11-11---11-11-11-11--------11-11-11-11---11-11-11-11---|       
A|--12-12-12-12---12-12-12-12--------12-12-12-12---12-12-12-12---|       
E|---------------------------------------------------------------| 
                                                                            (x2)
e|---------------------------------------------------------------|      
B|---------------------------------------------------------------|       
G|--8-6-8-6-8-6-8-6-8-9--------8-6-8-6-8-6-8-6-8-9---------------| 
D|--6-6-6-6-6-6-6-6-6-7--------6-6-6-6-6-6-6-6-6-7---------------|       
A|--7-7-7-7-7-7-7-7-7-8--------7-7-7-7-7-7-7-7-7-8---------------|       
E|---------------------------------------------------------------| 

[Solo]

| A G#m | F#m E | A G#m | G | B |

[Bridge]

E                        B
Ima made no jibun wo subete shinjite
    A                   B
Imeeji shita asa wo matsu


[Chorus]

       E                   B
Me wo akereba atarashii boku ga iru
      C#m                B
Ima kara nandatte egaite ikeru
      A                          G#m
Hakinareta kutsu de itsumo yori keikai ni
      G                 B
Fumidaseba nandemo tobikoerareru
             A        G#m         F#m          B
Imeeji shita risou ga genjitsu wo nurikaete iku
          A     E      A      B
Itsudatte atarashii sutaato wa kireru

[Outro]

|A G#m | F#m E | (x3)
|A G#m | E |
Suggest correction
Creating personal tab
Creating personal tab
You can edit any tab online and save it as your Personal.

You can edit, replace or remove any tab part or add personal notes – all changes will be seen only by you.

Personal tabs can be accessed anytime from any device, even offline.
Learn more »
Give kudos to tab author, rate the tab!
1 2 3 4 5
comments
print report bad tab
guest
You may want to rate the tab now too:
select rating
Wanna post a correction for this tab? Suggest correction