Oops, an error
Loading. Please wait.

Ringringring chords

by Scandal
61 views 1 this week
no commentswrite comment
1 2 3 4 5
3 more votes to show rating
add to favorites
×
Save as Personal and add changes to this tab that will be seen only by you. Learn more ›
×
You can save this tab as Personal to edit and correct it or add notes. All changes will be seen only by you. Learn more »
launch autoscroll
font size
0
reset
transpose
0
reset
simplify chords
display chords
guitar tuner
edit
Autoscroll
slow
fast
+/-
esc
set tempo
stop
Author
Strumming
There is no strumming pattern for this song yet. and get +5 IQ
Intro Chords

    D#5  A#5 
e|---x---x----|
B|---x---x----|
G|---8---x----| 
D|---x---8----| 
A|---6---x----|
E|---x---6----|

D#5D#5 D#5 D#5D#5D#5    ]Repeats
D#5D#5 D#5 A#5A#5A#5A#5 ]

Intro Riff

e|--2----------2----------2----------1-1111------|
B|----4--2--4----424--424---4--2--4---------4-3--|
G|-----------------------------------------------| 
D|-----------------------------------------------|
A|-----------------------------------------------|
E|-----------------------------------------------|

Verse: 

   D#5  A#5 D5 A5  G#5 G#  Bb
e|---x---x---x---x---x--x---x|
B|---x---x---x---x---x--x---x|
G|---x---x---x---x---x--5---7| 
D|---8---x---7---x---x--6---8|
A|---6---8---5---7---6--x---x|
E|---x---6---x---5---4--x---x|( The D5 is muted)

D#5
Anata shidai na no ni
        G#5
Nan ni mo wakatte nai
 D#5
Sakki no denwa no taido ga sou yo
    A#5  A5  G#5
Daitai watashi wo sakana deru no yo
 A#5  A5  G#5                 D5  D#5 A#5
Ki no nai furi wa yamete miyou ka na

D#5
Ni-mai-me kidori no jinanbou
       G#5
DENIMU ROORU APPU de
D#5
Hayari ni notteru tsumori
       A#5  A5  G#5
Yappa zenzen TAIPU ja nai hazu na no ni
 A#5  A5  G#5   G#               D#5 Bb        
Denwa matteru atashi mo BAKA mitai


Pre Chorus:


    Cm   F  F5 G5 G#5 A#5
e|---3---x--x--x--x---x-|
B|---4---1--x--x--x---x-|
G|---5---2--x--x--x---x-| 
D|---5---3--x--x--x---x-|
A|---3---3--3--5--6---8-|
E|---x---x--1--3--4---6-|

Mami plays: 

e|----------------------------x--x--x----x-----------------|
B|-(15)-(13)-(11)-10----6-----x--x--x----x-----------------|
G|----------------------------x--x--x----x-----------------| 
D|----------------------------x--x--x----x-----------------|
A|----------------------------3--5--6----8-----(5)-(5)-----|
E|----------------------------1--3--4----6--------5---5----|The (x) means bend.



  Cm                 F         F5       G5    G#5
AH kakehiki jouzu no WANKOORU chakushin hikare
                 A#
Koe ga kikitakute


Chorus

  C5  D#5  F5  G5  G#5 A#5
e|-x---x---x---x---x----x-|
B|-x---x---x---x---x----x-|
G|-x---x---x---x---x----x-| 
D|-5---8---10-12--13----x-|
A|-3---6---8--10--11----8-|
E|-x---x---x---x--x-----6-|

Mami plays:

e|-------------------------------------------------------------------------x-x-|
B|---8---9---11-----13-------8---9----11-----13------(8)--6--4--(8)--6--4--x-x-|
G|----88--88---1212----1313---88--88----1212---1313------------------------x-x-| 
D|-------------------------------------------------------------------------8-8-|
A|-------------------------------------------------------------------------6-6-|
E|-------------------------------------------------------------------------x-x-| 

e|---------------------------|
B|---8---9---11-----13-------|
G|----88--88---1212----1313--| D#5 A#5 
D|---------------------------|
A|---------------------------|
E|---------------------------| 

D#5    F5     G5      G#5
Moshimo yozora ni mukatte
D#5    F5     G5      G#5             C5 A#5 G#5
Negai goto hitotsu kanau toshitara
                   C5 A#5 G#5         D#5
Mune no sukima umeru kotoba hoshii no
D#5    F5     G5      G#5      D#5    F5     G5      G#5
Nemure nai yoru ni kagitte anata omou nante doukashiteru wa
D#5   F5    G5    G#5    D#5 F   D#5 A#5
Yureru watashi no HAATO ga natta


D#5 D#5  D#5 D#5D#5D#5
Ring,ring,ring,ring,ring 

D#5 D#5  D#5  A#5A#5A#5A#5 
Ring,ring,ring,ring,ring 


Verse 2: 

D#5                       G#5
Anata shidai na no yo hontou no tokoro wa
D#5
MEERU mo sugu ni wa kasa nai
     A#5  A5  G#5               A#5  A5  G#5
Na no ni zenzen douji nai sakusen shippai
               G#5      
Ki no nai furi wa yamete miyou ka na


(Instrumental) D#5(12x) A#5 A#5


Solo: 

e|-------------------------------------------------------------------------------|
B|-------------------------------------------------------------------------------|
G|(10)(10)(10)(10)-8-(10)-10-8-----(10)(10)(10)(10)-8--(10)-10-8-------------8---| 
D|----------------------------------------------------------------------8-10-----|
A|-------------------------------------------------------------------------------|
E|-------------------------------------------------------------------------------| 

e|----------------------------------------------------------------|
B|----------------------------------------------------------------|
G|(10)(10)(10)(10)-8--(10)-10-8-----------------------------------| 
D|----------------------------------------------4-/8-6-6666-4-----|
A|------------------------------------------4-6---------------6---|
E|------------------------------------6-4-6-----------------------| 

e|--------------------------------------------------------------|
B|--------------------------------------------------------------|
G|---------------------------------------------------/7---------| 
D|-------------4-/8-6-6666-4-(7)-777-(7)-7-4--------------------|
A|-------4-6--------------------------------6-4h6---------------|
E|6-4-6---------------------------------------------------------| 

Pre Chorus 2:

  Cm  F  F5 G5 G#5 A#5
e|3---x--x--x--x---x-|
B|4---1--x--x--x---x-|
G|5---2--x--x--x---x-| 
D|5---3--x--x--x---x-|
A|3---3--3--5--6---8-|
E|x---x--1--3--4---6-|

Mami plays: 

e|---------------------------x--x--x----x-----------------|
B|(15)-(13)-(11)-10----6-----x--x--x----x-----------------|
G|---------------------------x--x--x----x-----------------| 
D|---------------------------x--x--x----x-----------------|
A|---------------------------3--5--6----8-----(5)-(5)-----|
E|---------------------------1--3--4----6--------5---5----|

 Cm                 F         
AH kanjin na bamen de itsumo
      F5       G5    G#5          A#5
Jikan ga tomaru koe ni nara nakute

Chorus:

D#5    F5     G5      G#5            
Hoshi no yozora ni mukatte
D#5    F5     G5      G#5             C5 A#5 G#5
Namida miseru watashi nanka ja nai yo
                  C5 A#5 G#5    D#5  
Mune ga sawai demo munashiku natte
D#5    F5     G5      G#5      D#5    F5     G5      G#5
Nemure nai yoru no riyuu ga anata nante nattoku deki nai wa
D#5   F5    G5    G#5    D#5 F   D#5 A#5
Omoi kitte denwa shite miyou

D#5    F5     G5      G#5     
Soredemo koe ga kikitai to
D#5    F5     G5      G#5             C5 A#5 G#5
Omou kimochi wa uso ja nai mitai da
                 C5 A#5 G#5    D#5 
Yureru watashi no HAATO odotta

D#5 D#5  D#5 D#5D#5D#5
Ring,ring,ring,ring,ring 

D#5 D#5  D#5 A#5A#5A#5A#5 
Ring,ring,ring,ring,ring 

  End with D#5

Mami outro: 

e|---------------------------x-------------x----|
B|---------------------------7-------------x----|
G|---------------------------6-------------x----| 
D|---------------------------x-------------8----|
A|66-44-33-------------------6-------------6----|
E|---------(6)-3-4--6--0-----x-------------x----|



************************************
|(n) Bend
| x  Dead note
| h  Hammer-on
| /  Slide up

***********************************

            
            
Suggest correction
Creating personal tab
Creating personal tab
You can edit any tab online and save it as your Personal.

You can edit, replace or remove any tab part or add personal notes – all changes will be seen only by you.

Personal tabs can be accessed anytime from any device, even offline.
Learn more »
Give kudos to tab author, rate the tab!
1 2 3 4 5
comments
print report bad tab
guest
You may want to rate the tab now too:
select rating
Wanna post a correction for this tab? Suggest correction