Oops, an error
Loading. Please wait.

Rock N Roll Widow tab

by Scandal
139 views 1 this week
no commentswrite comment
1 2 3 4 5
3 more votes to show rating
add to favorites
×
Save as Personal and add changes to this tab that will be seen only by you. Learn more ›
×
You can save this tab as Personal to edit and correct it or add notes. All changes will be seen only by you. Learn more »
launch autoscroll
font size
0
reset
how to read this tab
guitar tuner
edit
Autoscroll
slow
fast
+/-
esc
set tempo
stop
Author
[Chords]

    E5   F#5    G5  A5  D5  A#5 B5  E4
e|--x-----x-----x---x---x---x---x---x-|
B|--x-----x-----x---x---x---x---x---x-|
G|--x-----x-----x---x---x---x---x---x-|
D|--9----11----12--14---7---x---x---7-|
A|--7-----9----10--12---5---8-- 9---7-| 
E|--x-----x----x---x----x---6---7---x-| 

[Intro]

E5   F#5 F#5  E5 E5  F#5  E5 E5
E5 E5 E5 F#5 F#5  E5 E5  F#5  E5 E5 (4x)
E5 E5 


[Verse]

e|------------------------------------------|
B|------------------------------------------|
G|------------------------------------------|
D|------9-9------9-9------9-9-----9-9-------|
A|-7777------777-----7777-----777-----------| 
E|------------------------------------------|

e|-------------------------------------|
B|-------------------------------------|
G|-------------------------------------|
D|------7-7------7-7------9-9------9-9-|
A|-7777------777-----7777------777-----| 
E|-------------------------------------|

E5                   E5
Motetai tame no rokkunrooraa
E4                          E5
Anata douki ga fujun nanda wa
E5                         G5 A5
Kinpatsu bijin no gurupii
A5                       E5
Itsumo haberase aruiteru


[Pre-chorus]   

e|------------------------------------------------------------------|
B|------------------------------------------------------------------|
G|------------------------------------------------------------------|
D|-9-7-9-7----7-9--9-7-9-7----7-9--7-5-7-5-----5-7--7-5-7-5-----5-7-|
A|--------7-9-------------7-9-------------5-7---------------5-7-----| 
E|------------------------------------------------------------------|  

e|-------------------------------------x-|
B|-------------------------------------11|
G|-------------------------------------x-|
D|-9-7-9-7----7-9-9-7-9-7-----7-9------8-|
A|--------7-9------------7-9-----------x-| 
E|-------------------------------------x-|  

E5        
Hito no kyoku ni wa kechi tsukete
E5              D5
Suupaasutaa wo kidotteru kedo
E5
Nanika chigau wa
A#5                                
Kakko kakko kakko kakko kakko kakko

e|--------------|
B|--------------|
G|--------------|
D|-/9-----------|
A|----9-8-7-5-2-| 
E|--------------|  

        B5              F#5 F5 E5 D5 B5
Kakko bakari sakibashiri

[Chorus]
E5   F#5 F#5  E5 E5  G5  F#5 F#5
Rokkunrooru uidou  ahahah

E5   F#5 F#5  E5 E5  G5  F#5 F#5
Rokkunrooru uidou  ahahah

D5      C5   B5
Ii kagen nishite

Watashi anata no mama ja nai


E5 E5 E5   F#5 F#5  E5 E5  G5  F#5 F#5 (2x)


[Verse 2]
E5                         G5 A5
Hitome kini suru rokkunrooraa
E5                         
Kin no yubiwa wo migite nishiteru
E5                          G5 A5
Shauto suru no ga ekusutashii
E5                          
Noreba asa made kaeranai

[Pre-chorus]
e|----------------------------------|
B|----------------------------------|
G|----------------------------------|
D|-9/7-9/7-----7h9---7/5-7/5----5h7-|
A|---------7h9--------------5h7-----| 
E|----------------------------------|  

e|----------------------x-|
B|----------------------11|
G|----------------------x-|
D|-9/7-9/7----7h9-------8-|
A|--------7h9-----------x-| 
E|----------------------x-| 

E5
Moshi mo dareka ni kikaretara
E5              D5
Otto wa touni nakunarimashita
E5
Ii hito deshita
A#5 
Kakko kakko kakko kakko kakko kakko


e|---------------------------------------------------------------|
B|---------------------------------------------------------------|
G|----12-14-12-12-14-12-12-14-12-1212-12-14-12-12-14-12-12-14-12-|
D|/9-------------------------------------------------------------|
A|---------------------------------------------------------------| 
E|---------------------------------------------------------------|  

e|-----------------------|
B|-----------------------|
G|-----------------------|
D|-----------------------|
A|-9-8-7-5-2-------------| 
E|-----------2-1-0--10-7-| 
 B5              F#5 F5 E5 D5 B5
Kakko tsukete nakitaiwa

[Solo]

e|------------------------------------------------------|
B|------------------------------------------------------|
G|-/12(5x)--------------------/12(5x)--------12-14-12---|
D|---------------12--------------------12h14------------|
A|---------12h14----14-12-14----------------------------| 
E|------------------------------------------------------| (2x)

A#5 
Kakko kakko kakko kakko kakko kakko
            
Kakko tsukete nakitaiwa

[Chorus]

E5   F#5 F#5  E5 E5  G5  F#5 F#5
Rokkunrooru uidou  ahahah

E5   F#5 F#5  E5 E5  G5  F#5 F#5
Rokkunrooru uidou   ahahah

D5        C5      B5
Ii kagen nishite

Watashi anata no mama ja nai


E5   F#5 F#5  E5 E5  G5  F#5 F#5
Rokkunrooru uidou  ahahah

E5   F#5 F#5  E5 E5  G5  F#5 F#5
Rokkunrooru uidou   ahahah


E5   F#5 F#5  E5 E5  G5  F#5 F#5
Rokkunrooru uidou  ahahah

E5   F#5 F#5  E5 E5  G5  F#5 F#5
Rokkunrooru uidou  ahahah


E5     E5      E5
Ahahah ahahah ahahah

 
************************************

| (n)  Bend 
| x    Dead note
| /    Slide


************************************

            
            
Suggest correction
Creating personal tab
Creating personal tab
You can edit any tab online and save it as your Personal.

You can edit, replace or remove any tab part or add personal notes – all changes will be seen only by you.

Personal tabs can be accessed anytime from any device, even offline.
Learn more »
Give kudos to tab author, rate the tab!
1 2 3 4 5
comments
print report bad tab
guest
You may want to rate the tab now too:
select rating
Wanna post a correction for this tab? Suggest correction