Oops, an error
Loading. Please wait.

Room No7 tab

by Scandal
100 views 1 this week
no commentswrite comment
1 2 3 4 5
2 more votes to show rating
add to favorites
×
Save as Personal and add changes to this tab that will be seen only by you. Learn more ›
×
You can save this tab as Personal to edit and correct it or add notes. All changes will be seen only by you. Learn more »
launch autoscroll
font size
0
reset
how to read this tab
guitar tuner
edit
Autoscroll
slow
fast
+/-
esc
set tempo
stop
Author
Difficulty
About this tab version
Guitar tab, tone settings, and studio notes. Was this info helpful? Yes No
This is a tab primarily focused on Mami Sasazaki's part.

Guitar tone settings:

1. Heavy crunch guitar for the general tone (gain quite high on the clean channel of the amp or mid-gain on 
the drive channel.

2. During Part Two it's like some kind of fuzz, if you don't have that just stick with the above 
(heavy drive on the bridge pick up will get you close, however). Alternatively if you do have a drive pedal 
stack that on top of the clean channel gain settings listed.

3. During the Part Four slide section there is quite a heavy reverb here, the mix on the reverb 
is likely on near maximum.


[Intro]

Mute strings immediately after you hit the E power chord:

e|-----------------------------------------------|
B|-----------------------------------------------|
G|-----------------------------------------------|
D|-2-2----------2-2----------2-2----------2-2----|  Drum fill
A|-2-2----------2-2----------2-2----------2-2----|
E|-0-0----------0-0----------0-0----------0-0----|


[Part One]

e|------------------------------------|
B|------------------------------------|
G|--6-7-6-7-6--------6-7-6-7-6-7/9----| x 2
D|------------7-5-2-------------------|
A|--4-5-4-5-4-----2--4-5-4-5-4-5/7----|
E|------------5-3-0-------------------|

You don't have to include the E power chord in the middle as it's fairly awkward - it's actually Haruna's 
part - if you don't want to just hit the G octave chord and move onto the next section. I like to include 
the E power chord here as it sounds huge, and it makes it a little more challenging. 


[Part Two]

e|-----------------------------|
B|-----------------------------|
G|-----------------------------| x 4
D|-----------------------------|
A|-----------------------------|
E|-0-3-0-5-0-3-0-7-0-5-0-3-0-0-|

The double 00's at the end here are the key to locking in.


[Part Three]

e|------------------------|
B|------------------------|
G|--7---11---14---17------|
D|------------------------|
A|--5---9----12---15------|
E|------------------------|
    N   N    N    N

This part is tremolo picking across the two strings, just go a little nuts with this as it's meant to be 
quite an aggressive ascending octave part that is a core element of Mami's overall style


[Part Four]

e|------------------------------------|
B|------------------------------------|
G|-7-\-6-x-x-7-\-6-x-x-7-\-6--x-x-/9--| x 4
D|------------------------------------| 
A|-5-\-4-x-x-5-\-4-x-x-5-\-4--x-x-/7--|
E|------------------------------------|

The x's here are more to make you aware of the muting that happens before you hit the notes as they're too
rhythmic to tab out. There are two mute notes before each hit, however.

This is the part with a super heavy reverb mix, if you have a reverb pedal essentially it's a light hall
reverb but with the mix practically on full. There may even be a treble boost pedal involved for the extra
cut that happens here, but that's just a studio thing.

Roll back to Part One and run through the above a second time.

[Part Five Ending]

e|------------------------------------|
B|------------------------------------|
G|--6-7-6-7-6--------6-7-6-7-6-7/9----| x 3
D|------------7-5-2-------------------|
A|--4-5-4-5-4-----2--4-5-4-5-4-5/7----|
E|------------5-3-0-------------------|

You can do Part Five 4 times over and end on higher E octave chord - alternatively if you want to lock back in
with Haruna you can go back to the standard E power chord below:

e|------------------------------------|
B|------------------------------------|
G|--6-7-6-7-6--------6-7-6-7-6-7------| 
D|------------7-5-2--------------2----|
A|--4-5-4-5-4-----2--4-5-4-5-4-5-2----|
E|------------5-3-0--------------0----|




Full Tab without notes:

e|-----------------------------------------------|
B|-----------------------------------------------|
G|-----------------------------------------------|
D|-2-2----------2-2----------2-2----------2-2----|  Drum fill
A|-2-2----------2-2----------2-2----------2-2----|
E|-0-0----------0-0----------0-0----------0-0----|


[Part One]

e|------------------------------------|
B|------------------------------------|
G|--6-7-6-7-6--------6-7-6-7-6-7/9----| x 2
D|------------7-5-2-------------------|
A|--4-5-4-5-4-----2--4-5-4-5-4-5/7----|
E|------------5-3-0-------------------|

[Part Two]

e|-----------------------------|
B|-----------------------------|
G|-----------------------------| x 4
D|-----------------------------|
A|-----------------------------|
E|-0-3-0-5-0-3-0-7-0-5-0-3-0-0-|

[Part Three]

e|------------------------|
B|------------------------|
G|--7---11---14---17------|
D|------------------------|
A|--5---9----12---15------|
E|------------------------|
    N   N    N    N

[Part Four]

e|------------------------------------|
B|------------------------------------|
G|-7-\-6-x-x-7-\-6-x-x-7-\-6--x-x-/9--| x 4
D|------------------------------------| 
A|-5-\-4-x-x-5-\-4-x-x-5-\-4--x-x-/7--|
E|------------------------------------|

[Part Five]

e|------------------------------------|
B|------------------------------------|
G|--6-7-6-7-6--------6-7-6-7-6-7/9----| x 4
D|------------7-5-2-------------------|
A|--4-5-4-5-4-----2--4-5-4-5-4-5/7----|
E|------------5-3-0-------------------|

Repeat twice



************************************

| x   Dead note
| g   Grace note
| (n) Ghost note
| h   Hammer-on
| p   Pull-off
| r   Release
| >   Accented note
| t   Tapping
| b   Bend
| br  Bend release
| pb  Pre-bend
| pbr Pre-bend release
| /   Slide up
| \   Slide down
| ~   Vibrato
| s   Slap
| P   Pop
| PM  Palm mute
| TR  Trill
| N   Tremolo

************************************
Suggest correction
Creating personal tab
Creating personal tab
You can edit any tab online and save it as your Personal.

You can edit, replace or remove any tab part or add personal notes – all changes will be seen only by you.

Personal tabs can be accessed anytime from any device, even offline.
Learn more »
Give kudos to tab author, rate the tab!
1 2 3 4 5
comments
print report bad tab
guest
You may want to rate the tab now too:
select rating
Wanna post a correction for this tab? Suggest correction