Oops, an error
Loading. Please wait.

Shoujo S tab

version 1
version 1

Whole song

Interactive

by Scandal
4,044 views 1 this week
3 commentsread comments
1 2 3 4 5
1 last vote to show rating
add to favorites
×
Save as Personal and add changes to this tab that will be seen only by you. Learn more ›
×
You can save this tab as Personal to edit and correct it or add notes. All changes will be seen only by you. Learn more »
launch autoscroll
font size
0
reset
how to read this tab
guitar tuner
edit
Autoscroll
slow
fast
+/-
esc
set tempo
stop
Author
Shoujo S
Scandal



Tuning: Standard (EADGBe)


Intro:
1st Riff
*|---------11--------------------|---------|-x--x--x--x---x--x--x--x--||
*|------------11p9-11-9-11-11b-9-|---------|-11-11-13-14--14-13-11-11-|
*|-8/10-10-----------------------|-10p8h10-|-11-11-13-14--14-13-11-11-|
*|-------------------------------|---------|--------------------------|
*|-------------------------------|---------|--------------------------|
*|-------------------------------|---------|--------------------------|

*|----11--------------------|---------|-x--x--x--x---x--x--x--x--|
*|-------11p9-11-9-11-11b-9-|---------|-11-11-13-14--14-13-11-11-|
*|-10-----------------------|-10p8h10-|-11-11-13-14--14-13-11-11-|
*|--------------------------|---------|--------------------------|
*|--------------------------|---------|--------------------------|
*|--------------------------|---------|--------------------------|

Verse:
 Eb5-F#5-G#5-B5
 Eb5-F#5-G#5-B5
 Eb5-F#5-G#5-B5
 Eb5-F#5-G#5-B5
 Eb5-F#5-G#5-B5
 Eb5-F#5-G#5-B5
 Eb5-F#5-G#5-B5
 Eb5-F#5-G#5-B5

Refrain: (i guess)
 B5-F#5-G#5-F#5
 B5-F#5-G#5-Bb5

Refrain's Last Riff:
*|------------------|
*|------------------|
*|---------------17-|
*|------15-17-17----|
*|-6/13-------------|
*|------------------|

Chorus:
 Eb5-F#5-G#5-B5
 Eb5-F#5-G#5-B5
 Eb5-F#5-G#5-B5
 Eb5-F#5-G#5-B5
 B5-C#5-Eb5-G#5
 
then:...
*|----------------------|
*|-10b-10b-10p8---------|
*|--------------10p8h10-|
*|----------------------|
*|----------------------|
*|----------------------|

Intstrumentals1:
*|------11--------------------|---------|-x--x--x--x---x--x--x--x--|
*|---------11p9-11-9-11-11b-9-|---------|-11-11-13-14--14-13-11-11-|
*|-(10)-----------------------|-10p8h10-|-11-11-13-14--14-13-11-11-|
*|----------------------------|---------|--------------------------|
*|----------------------------|---------|--------------------------|
*|----------------------------|---------|--------------------------|




Interlude:
*|-------|---------|-------------------|
*|-------|---------|-------------------|
*|-------|---------|-------------------|
*|-----8-|-------7-|-------------------|
*|-6-6---|-0-5-5---|-0-4-4-4-4-4---4-5-|
*|-------|---------|-------------6-----|

*|-------|---------|-------------------|
*|-------|---------|-------------------|
*|-------|---------|-------------------|
*|-----8-|-------7-|-------------------|
*|-6-6---|-0-5-5---|-0-4-4-4-4-4---4-5-|
*|-------|---------|-------------6-----|

*|-------|---------|-------------------|
*|-------|---------|-------------------|
*|-------|---------|-------------------|
*|-----8-|-------7-|-------------------|
*|-6-6---|-0-5-5---|-0-4-4-4-4-4---4-5-|
*|-------|---------|-------------6-----|

*|-------|---------|-------------------|
*|-------|---------|-------------------|
*|-------|---------|-------------------|
*|-----8-|-------7-|-------------------|
*|-6-6---|-0-5-5---|-0-4-4-4-4-4---4-5-|
*|-------|---------|-------------6-----|

then:...
*|-------------------------------------------------------------------------------------|
*|-------------------------------------------------------------------------------------|
*|-8-8-8-8-8/10-10-10-10-10-10/11-11-11-11-11/13-13-13-13-13/15-15-15-15-15-15----15/+-|
*|-x-x-x-x-x-x--x--x--x--x--x--x--x--x--x--x--x--x--x--x--x--x--x--x--x--x--x-----x----|
*|-6-6-6-6-6/8--8--8--8--8--8/-9--9--9--9--9/-11-11-11-11-11/13-13-13-13-13-13----13/+-|
*|-------------------------------------------------------------------------------------|
 Nan   nen  tatte   mo  itsu   ni   natte   mo   yame   nai   de

Chorus2:
 G#5-B5-F#5-G#5-B5 (pause)
 G#5-B5-F#5-G#5-B5
 B5-C#5-Eb5-G#5

then:...
*|------------------|
*|------------------|
*|---------------18-|
*|------16-18-18----|
*|-7/14-------------|
*|------------------|

Chorus3:
 E5-G5-A5-C5
 E5-G5-A5-C5
 E5-G5-A5-C5
 E5-G5-A5-C5
 C5-D5-E5-A5

then:...
*|----------------------|
*|-11b-11b-11p9---------|
*|--------------11p9h11-|
*|----------------------|
*|----------------------|
*|----------------------|

Outro:
*|------11--------------------|---------|-x--x--x--x---x--x--x--x--|
*|---------11p9-11-9-11-11b-9-|---------|-11-11-13-14--14-13-11-11-|
*|-(10)-----------------------|-10p8h10-|-11-11-13-14--14-13-11-11-|
*|----------------------------|---------|--------------------------|
*|----------------------------|---------|--------------------------|
*|----------------------------|---------|--------------------------|

*|----11--------------------|---------|-x--x--x--x---x--x--x--x--|
*|-------11p9-11-9-11-11b-9-|---------|-11-11-13-14--14-13-11-11-|
*|-10-----------------------|-10p8h10-|-11-11-13-14--14-13-11-11-|
*|--------------------------|---------|--------------------------|
*|--------------------------|---------|--------------------------|
*|--------------------------|---------|--------------------------|

*|----11--------------------|---------|-x--x--x--x---x--x--x--x--|
*|-------11p9-11-9-11-11b-9-|---------|-11-11-13-14--14-13-11-11-|
*|-10-----------------------|-10p8h10-|-11-11-13-14--14-13-11-11-|
*|--------------------------|---------|--------------------------|
*|--------------------------|---------|--------------------------|
*|--------------------------|---------|--------------------------|

end........



Ledger:

p           pull off
h           hammer on
(n)         optional/ignore (hehehe)
x           dead string
/           slide 

whew...
another scandalicious song... hahaha
i hope you like it!!!
it's quite easy to play
just focus on the right timing
especially on the last parts..
just refer to the song for the right timing ok?


again for questions, suggestions, comments please kindly post it here
or on my facebook wall: bwahaha_13@yahoo.com
you can also visit my blog: juliusabay.blogspot.com for some Tab and updates..

again ang again thanks a lot!!!
happy playing!!!
Suggest correction
Creating personal tab
Creating personal tab
You can edit any tab online and save it as your Personal.

You can edit, replace or remove any tab part or add personal notes – all changes will be seen only by you.

Personal tabs can be accessed anytime from any device, even offline.
Learn more »
Give kudos to tab author, rate the tab!
1 2 3 4 5
comments
print report bad tab
3 comments total.
0 reply
pablo.martinezl 31 Dec 16, 2013 03:38 PM, edited at 08:39 pm

Hey I have some corrections, atleast thats how it sounds legit in standard tunningbut nice work of yours.INTRO*|------11p--9-------------------|----------|-x--x--x--x---x--x--x---(x--x--x)-|*|------------11--7/9-9p10-7---|--------7-|-11-13-13-14--14-13-11--(14-13-11)|*|-/8--------------------------|--8p6h8---|-11-13-13-14--14-13-11--(14-13-11)|*|-----------------------------|----------|----------------------------------|*|-----------------------------|----------|----------------------------------|*|-----------------------------|----------|----------------------------------|

0 reply
pablo.martinezl 31 Dec 16, 2013 03:43 PM

Hey I have some corrections, atleast thats how it sounds legit in standard tunning
but nice work of yours.

INTRO

*|------11p--9-----------------|----------|-x--x--x--x---x--x--x---(x--x--x)-|
*|------------11--7/9-9p10-7---|--------7-|-11-13-13-14--14-13-11--(14-13-11)|
*|-/8--------------------------|--8p6h8---|-11-13-13-14--14-13-11--(14-13-11)|
*|-----------------------------|----------|----------------------------------|
*|-----------------------------|----------|----------------------------------|
*|-----------------------------|----------|----------------------------------|


*|------11p--9-----------------|----------|-x--x--x--x---x--x--x--|
*|------------11--7/9-9p10-7---|--------7-|-11-13-13-14--14-13-11-|
*|-/8--------------------------|--8p6h8---|-11-13-13-14--14-13-11-|
*|-----------------------------|----------|-----------------------|
*|-----------------------------|----------|-----------------------|
*|-----------------------------|----------|-----------------------|

(in here I just put the 7 bcuz I liked it that way but it sounds the same as the x/11/11..so its whatever)


Refrain's Last Riff:
*|------------------|
*|------------------|
*|---------------15-|
*|------12-12-15----|
*|-/13--------------|
*|------------------|



OUTRO

in the outro the solo just change to half tone higher. so its like this

*|------12p-10-------------------|----------|-x--x--x--x---x--x--x---(x--x--x)-|
*|------------12--8/10-10p11-8---|--------8-|-12-14-14-15--15-14-12--(15-14-12)|
*|-/9----------------------------|--9p7h9---|-12-14-14-15--15-14-12--(15-14-12)|
*|-------------------------------|----------|----------------------------------|
*|-------------------------------|----------|----------------------------------|
*|-------------------------------|----------|----------------------------------|

*|------12p-10-------------------|----------|-x--x--x--x---x--x--x---|
*|------------12--8/10-10p11-8---|--------8-|-12-14-14-15--15-14-12--|
*|-/9----------------------------|--9p7h9---|-12-14-14-15--15-14-12--|
*|-------------------------------|----------|------------------------|
*|-------------------------------|----------|------------------------|
*|-------------------------------|----------|------------------------|

0 reply
sophiemcchristi 10 Aug 14, 2015 12:31 AM

didn't like this contribution

guest
You may want to rate the tab now too:
select rating
Wanna post a correction for this tab? Suggest correction