Oops, an error
Loading. Please wait.

Sisters bass

version 1
version 1

Whole song

Interactive

by Scandal
439 views 1 this week
no commentswrite comment
1 2 3 4 5
2 more votes to show rating
add to favorites
×
Save as Personal and add changes to this tab that will be seen only by you. Learn more ›
×
You can save this tab as Personal to edit and correct it or add notes. All changes will be seen only by you. Learn more »
launch autoscroll
font size
0
reset
guitar tuner
edit
Autoscroll
slow
fast
+/-
esc
set tempo
stop
Author
Difficulty
Strings: 4
Turning: E A D G (Standard)


[Intro]

0:19
G|---------------------------------------------------------------------------------------------------|
D|---------------------------------------------------------------------------------------------------|
A|-------------8--8-8-8\-------------10--10-10-10\--5--5-5-5/--8--8-8-8\--3--3-3-3/--10--10-10-10\---|
E|--1--1-1-1/------------5--5-5-5/-------------------------------------------------------------------|

G|------------------------------------------------------------------------------------------------|
D|------------------------------------------------------------------------------------------------|
A|--1--1-1-1/--8--8-8-8\------------10--10-10-10\------------8--8-8-8\--3--3-3-3/--10--10-10-10---|
E|----------------------5--5-5-5/----------------3--3-3-3/----------------------------------------|


[Verse 1]

G|-----------------------------------/12-9----9-----------|
D|------------0----------------------------12---12-10-----|
A|-------0--------------1---------------------------------|
E|--1--------------1---------1----3-----------------------|

G|----------------------------------------------------------------------------------------------------------|
D|----------------------------------------------------------------------------------------------------------|
A|--8-8-8-8-8-8-8-8\--0-0-0-0-0-0-0-0--5-5-5-5-5-5-5-5--6-6-6-6-6-6-6-6\--1-1-1-1-1-1-1-1-2-3-3-3-3-3-3-3-3-|
E|----------------------------------------------------------------------------------------------------------|

G|---------------------------------------|
D|-----------------------------7---------|
A|-------------------/8-8-8-10---10-8\---|
E|--1-1-1-1-1-1-1-1----------------------|


[Pre-Chorus]

G|------------------------------------------------------------------------------------------|
D|------------------------------------------------------------------------------------------|
A|--5-5-5-5-5-5-5-5--3-3-3-3-3-3-3-3--1-1-1-1-1-1-1-1---------------------------------------|
E|-----------------------------------------------------1-1-1-1-1-1-1-1/3-3-3-3-3-3-3-3-3/---|

G|-----------------------------------------------------------------|
D|-------------------------------------------10-10-10-8h10-10------|
A|--10-10-10-10-10-10-10\--5-5-5-5-5-5-5-5/-------------------10---|
E|-----------------------------------------------------------------|


[Chorus]

G|---------------------------------------------------------------------------------------------|
D|---------------------------------------------------------------------------------------------|
A|-------------------------------------5-5-5-5-5-5-5-5------------10-10-10\--1-1-1-1-1-1-1-1---|
E|--1-1-1-1-1-1-1-1/--5-5-5-5-5-5-5-5-------------------3-3-3-3/-------------------------------|

G|-----------------------------------------------------------|
D|-------------------------------------------------2-2-------|
A|------------------------------10-10-10\--3-3-5-5-----3-3---|
E|--1-1-1-1-1-1-1-1/3-3-3-3-3/-------------------------------|

G|----------------------------------------------------------------------------------------------|
D|--------------------7-7-7--------------------12-12-12-12-------------9-9----------------------|
A|-----------8---8-10-------7-7-7-4-4-5-5-5-5/-------------10-10-12-12-----10\------------------|
E|--1-1-1-1/---8---------------------------------------------------------------6-6-6-6-6-6-6\---|

G|-----------------------------------------|
D|-----------------------------------------|
A|-----------------------------10-10-10\---|
E|--1-1-1-1-1-1-1-1/3-3-3-3-3/-------------|


[Intro]

G|---------------------------------------------------------------------------------------------------|
D|---------------------------------------------------------------------------------------------------|
A|-------------8--8-8-8\-------------10--10-10-10\--5--5-5-5/--8--8-8-8\--3--3-3-3/--10--10-10-10\---|
E|--1--1-1-1/------------5--5-5-5/-------------------------------------------------------------------|

G|------------------------------------------------------------------------------------------------|
D|------------------------------------------------------------------------------------------------|
A|--1--1-1-1/--8--8-8-8\------------10--10-10-10\------------8--8-8-8\--3--3-3-3/--10--10-10-10---|
E|----------------------5--5-5-5/----------------3--3-3-3/----------------------------------------|


[Verse 2]

G|--------------------------------------------------------------------|
D|--------------------------------------------------------------------|
A|--------------------------------------------5-5----3-3----3-3-3\1---|
E|--1-1----1-1----1-1----5-5----5-5----5-5----------------------------|

G|------------------------------------------|
D|--------------/8-8--8--10-10-10-10--------|
A|--1--1-1-1-1-----------------------10-----|
E|--------------------------------------8---|


[Pre-Chorus]

G|------------------------------------------------------------------------------------------|
D|------------------------------------------------------------------------------------------|
A|--5-5-5-5-5-5-5-5--3-3-3-3-3-3-3-3--1-1-1-1-1-1-1-1---------------------------------------|
E|-----------------------------------------------------1-1-1-1-1-1-1-1/3-3-3-3-3-3-3-3-3/---|

G|-----------------------------------------------------------------|
D|-------------------------------------------10-10-10-8h10-10------|
A|--10-10-10-10-10-10-10\--5-5-5-5-5-5-5-5/-------------------10---|
E|-----------------------------------------------------------------|


[Chorus]

G|---------------------------------------------------------------------------------------------|
D|---------------------------------------------------------------------------------------------|
A|-------------------------------------5-5-5-5-5-5-5-5------------10-10-10\--1-1-1-1-1-1-1-1---|
E|--1-1-1-1-1-1-1-1/--5-5-5-5-5-5-5-5-------------------3-3-3-3/-------------------------------|

G|-----------------------------------------------------------|
D|-------------------------------------------------2-2-------|
A|------------------------------10-10-10\--3-3-5-5-----3-3---|
E|--1-1-1-1-1-1-1-1/3-3-3-3-3/-------------------------------|

G|----------------------------------------------------------------------------------------------|
D|--------------------7-7-7--------------------12-12-12-12-------------9-9----------------------|
A|-----------8---8-10-------7-7-7-4-4-5-5-5-5/-------------10-10-12-12-----10\------------------|
E|--1-1-1-1/---8---------------------------------------------------------------6-6-6-6-6-6-6\---|

G|-----------------------------------------|
D|-----------------------------------------|
A|-----------------------------10-10-10\---|
E|--1-1-1-1-1-1-1-1/3-3-3-3-3/-------------|


[Instrumental]

G|---------------------------------------------------------------------|
D|--------------------7-7-7-----------------7-7---7-----5-4-3---3-3\---|
A|-----------8---8-10-------7-7-7-7-6-5-5-5-----5---5-3----------------|
E|--1-1-1-1/---8-------------------------------------------------------|

G|---------------------------------------------------------------------------------|
D|-----------8-8---8--7-7-7-----------------------------------10-10-10-10-10-10\---|
A|--1-1-1-1/-----8----------5h7----------------10----10-12--9----------------------|
E|------------------------------5-5-4-3-3-3-3/----10-------------------------------|


[Chorus]

3:20
G|-----------------------------------------------------------|
D|-----------------------------------7-7-7-7-8-8-8-8-10-10---|
A|--1--1-1---------------10-10-10-10-------------------------|
E|----------3--1-1-1-1/--------------------------------------|

[Break]

G|--------------------------------------------------------------------------------|
D|--------------------7-7-7---------------------12-12-12-12-------------9-9-------|
A|-----------8---8-10-------7-7-7-4-4--5-5-5-5/-------------10-10-12-12-----10\---|
E|--1-1-1-1/---8------------------------------------------------------------------|

G|------------------------------------------------------------------------------------|
D|-----------8-8---8--7-7-7--------------------------12----------10-10-10-10-10-10\---|
A|--1-1-1-1/-----8----------8-8-8-----10-10-10-10-10----10-10-10----------------------|
E|--------------------------------8-8-------------------------------------------------|


[Outro]

G|-------------------------------------------------------------------------------|
D|--------------------7-7-7--------------------12-12-12-12-------------9-9-------|
A|-----------8---8-10-------7-7-7-4-4-5-5-5-5/-------------10-10-12-12-----10\---|
E|--1-1-1-1/---8-----------------------------------------------------------------|

G|----------------------------------------------------------------------------------|
D|------------------------------------------------------------------10-10-10\-------|
A|--1-1-1-1-1-1-1-1-----------------------------10-10-10\--3-3-3-3/-----------------|
E|-------------------1-1-1-1-1-1-1-1/3-3-3-3-3/--------------------------------1~---|

************************************

/ - Slide UP
\ - Slide Down
h - Hammer on

************************************

▬▬▬▬▬▬▬▬▬▬ஜ۩۞۩ஜ▬▬▬▬▬▬▬▬▬▬▬▬▬▬ 
Band:   SCANDAL

Song:   Sisters

Album:  YELLOW

Year:   2016
▬▬▬▬▬▬▬▬▬▬ஜ۩۞۩ஜ▬▬▬▬▬▬▬▬▬▬▬▬▬▬ 


            
            
Suggest correction
Creating personal tab
Creating personal tab
You can edit any tab online and save it as your Personal.

You can edit, replace or remove any tab part or add personal notes – all changes will be seen only by you.

Personal tabs can be accessed anytime from any device, even offline.
Learn more »
Give kudos to tab author, rate the tab!
1 2 3 4 5
comments
print report bad tab
guest
You may want to rate the tab now too:
select rating
Wanna post a correction for this tab? Suggest correction