Oops, an error
Loading. Please wait.

Space Ranger tab

by Scandal
3,302 views 3 this week
no commentswrite comment
1 2 3 4 5
x 3
add to favorites
×
Save as Personal and add changes to this tab that will be seen only by you. Learn more ›
×
You can save this tab as Personal to edit and correct it or add notes. All changes will be seen only by you. Learn more »
launch autoscroll
font size
0
reset
how to read this tab
guitar tuner
edit
Autoscroll
slow
fast
+/-
esc
set tempo
stop
Author
Difficulty
PRE INTRO:

E|-------------------------------------|
B|---x-x-x-----------------------------|
G|---x-x-x-----------------------------| (repeat 8x)
D|---x-x-x-----------------------------|
A|---x-x-x-----------------------------|
E|---x-x-x-----------------------------|


INTRO: 2X

  Guitar 1

      B                D        E          B                D        E

E|----------10------|------------------|----------10------|-------------------|
B|---12-12--10------|--10--10---9------|---12-12--10------|--10--10---9-------|
G|---11-11----------|---7---9---9------|---11-11----------|---7---9---9-------|
D|------------------|------------------|------------------|-------------------|
A|------------------|------------------|------------------|-------------------|
E|------------------|------------------|------------------|-------------------|
 | 
 |
 | Guitar 2
 |
E|------------------|------------------|------------------|-------------------|
B|------------------|------------------|------------------|-------------------|
G|------------------|---7-x-7---9------|------------------|---7-x-7---9-------|
D|---9-9---9-9-9-x--|---7-x-7---9------|---9-9---9-9-9-x--|---7-x-7---9-------|
A|---9-9---9-9-9-x--|---5-x-5---7------|---9-9---9-9-9-x--|---5-x-5---7-------|
E|---7-7---7-7-7-x--|------------------|---7-7---7-7-7-x--|-------------------|


VERSE 1

  Hajimari          no CHAIMU ga ima    kikoete kita      desho ?
  
    B                                                          D      E
E|------------------|------------------|------------------|-------------------|
B|------------------|------------------|------------------|-------------------|
G|------------------|------------------|------------------|---7-x-7---9-------|
D|------------------|------------------|------------------|---7-x-7---9-------|
A|------------------|------------------|------------------|---5-x-5---7-------|
E|------------------|------------------|------------------|-------------------|

  
  Hajikeru          ryuusei no mure    tobidasu    MELODY 

    B                                    B
E|------------------|------------------|------------------|-------------------|
B|------------------|------------------|------------------|-------------------|
G|------------------|------------------|------------------|-------------------|
D|------------------|------------------|-9-9-9-9-9-9-9-9--|-9-9-9-9-9-9-9-9---|
A|------------------|------------------|-9-9-9-9-9-9-9-9--|-9-9-9-9-9-9-9-9---|
E|------------------|------------------|-7-7-7-7-7-7-7-7--|-7-7-7-7-7-7-7-7---|

 

  Hora                                  Hmmmm

  Guitar 1

      B                D        E          B                D        E
E|----------10------|------------------|----------10------|-------------------|
B|---12-12--10------|--10--10---9------|---12-12--10------|--10--10---9-------|
G|---11-11----------|---7---9---9------|---11-11----------|---7---9---9-------|
D|------------------|------------------|------------------|-------------------|
A|------------------|------------------|------------------|-------------------|
E|------------------|------------------|------------------|-------------------|
 | 
 |
 |
 | Guitar 2
 |
E|------------------|------------------|------------------|-------------------|
B|------------------|------------------|------------------|-------------------|
G|------------------|---7-x-7---9------|------------------|---7-x-7---9-------|
D|---9-9---9-9-9-x--|---7-x-7---9------|---9-9---9-9-9-x--|---7-x-7---9-------|
A|---9-9---9-9-9-x--|---5-x-5---7------|---9-9---9-9-9-x--|---5-x-5---7-------|
E|---7-7---7-7-7-x--|------------------|---7-7---7-7-7-x--|-------------------|


VERSE 2


  ROKETTO            kara mioroshita      Kinsei no DISCO
  
    B                                                          D      E
E|------------------|------------------|------------------|-------------------|
B|------------------|------------------|------------------|-------------------|
G|------------------|------------------|------------------|---7-x-7/9---9-----|
D|------------------|------------------|------------------|---7-x-5/9---9-----|
A|------------------|------------------|------------------|---5-x-5/7---7-----|
E|------------------|------------------|------------------|-------------------|

  
  Ano ko to          Saa odorou ka          Konya wa party

    B                                    B
E|------------------|------------------|------------------|-------------------|
B|------------------|------------------|------------------|-------------------|
G|------------------|------------------|------------------|-------------------|
D|------------------|------------------|-9-9-9-9-9-9-9-9--|-9-9-9-9-9-9-9-9---|
A|------------------|------------------|-9-9-9-9-9-9-9-9--|-9-9-9-9-9-9-9-9---|
E|------------------|------------------|-7-7-7-7-7-7-7-7--|-7-7-7-7-7-7-7-7---|

 

REFRAIN:

  Sousa Ima shikanai tobidasou yo      Miracle        guitar 

      E    B          A      A B          E    B            D
E|------------------|------------------|------------------|-------------------|
B|------------------|------------------|------------------|-------------------|
G|---9-9------------|------------------|---9-9------------|---7---------------|
D|---9-9---9-9------|---7-7---7/9--9---|---9-9---9-9------|---7---------------|
A|---7-7---9-9------|---7-7---7/9--9---|---7-7---9-9------|---5---------------|
E|---------7-7------|---5-5---5/7--7---|---------7-7------|-------------------|

 
              narasu no sa
    D
E|-------------------|
B|-------------------|
G|--7-7-7-7--7-7-7-7-|
D|--7-7-7-7--7-7-7-7-|
A|--5-5-5-5--5-5-5-5-|
E|-------------------|


  
(REPEAT INTRO)


VERSE 3


  Kaseijin          no FURI wo shiteru    Doseijintachi  ga
    
    B                                                          D      E
E|------------------|------------------|------------------|-------------------|
B|------------------|------------------|------------------|-------------------|
G|------------------|------------------|------------------|---7-x-7/9---9-----|
D|------------------|------------------|------------------|---7-x-7/9---9-----|
A|------------------|------------------|------------------|---5-x-5/7---7-----|
E|------------------|------------------|------------------|-------------------|

  
  Gin iro            no PIKAPIKA NEON wo yoru ni    chiribameru 

    B                                    B
E|------------------|------------------|------------------|-------------------|
B|------------------|------------------|------------------|-------------------|
G|------------------|------------------|------------------|-------------------|
D|------------------|------------------|-9-9-9-9-9-9-9-9--|-9-9-9-9-9-9-9-9---|
A|------------------|------------------|-9-9-9-9-9-9-9-9--|-9-9-9-9-9-9-9-9---|
E|------------------|------------------|-7-7-7-7-7-7-7-7--|-7-7-7-7-7-7-7-7---|



  Guitar 1 (w/light wah fx)
  Hora                                      

      B                                      D        E          
E|----------7-7---------7-7---------7---|----------7-7---------7-7---------7--|
B|----7-----7-7---7-----7-7---------7---|----7-----7-7---7-----7-7---------7--|
G|----9b(11)------9b(11)------9b(11)----|----9b(11)------9b(11)------9b(11)---|
D|--------------------------------------|-------------------------------------|
A|--------------------------------------|-------------------------------------|
E|--------------------------------------|-------------------------------------|
 | 
 |
 |
 | Guitar 2
 |
E|--------------------------------------|-------------------------------------|
B|--------------------------------------|-------------------------------------|
G|--------------------------------------|-----7--x--7/9---9-------------------|
D|-------9--9---9--9--9-x---------------|-----7--x--7/9---9-------------------|
A|-------9--9---9--9--9-x---------------|-----5--x--5/7---7-------------------|
E|-------7--7---7--7--7-x---------------|-------------------------------------|


  Hmmm

        B                                    D        E          

E|----------7-7---------7-7---------7---|----------7-7------------------------|
B|----7-----7-7---7-----7-7---------7---|----7-----7-7-------10~~~~~----------|
G|----9b(11)------9b(11)------9b(11)----|----9b(11)------9----9~~~~~----------|
D|--------------------------------------|-------------------------------------|
A|--------------------------------------|-------------------------------------|
E|--------------------------------------|-------------------------------------|
 | 
 |
 |
 | Guitar 2
 |
E|--------------------------------------|-------------------------------------|
B|--------------------------------------|-------------------------------------|
G|--------------------------------------|-----7--x--7/9---9-------------------|
D|-------9--9---9--9--9-x---------------|-----7--x--7/9---9-------------------|
A|-------9--9---9--9--9-x---------------|-----5--x--5/7---7-------------------|
E|-------7--7---7--7--7-x---------------|-------------------------------------|


VERSE 4

    Donna ni        SUPIIDO ihan no          HADE na UFO mo
                                                              D    E

E|------------------|------------------|------------------|-------------------|
B|------------------|------------------|------------------|-------------------|
G|------------------|------------------|------------------|---7-x-7/9---9-----|
D|------------------|------------------|------------------|---7-x-7/9---9-----|
A|------------------|------------------|------------------|---5-x-5/7---7-----|
E|------------------|------------------|------------------|-------------------|

  
  Sawaide            tanoshinde (Hey !!) Sakende      abarete

    B                                    B
E|------------------|------------------|------------------|-------------------|
B|------------------|------------------|------------------|-------------------|
G|------------------|------------------|------------------|-------------------|
D|------------------|------------------|-9-9-9-9-9-9-9-9--|-9-9-9-9-9-9-9-9---|
A|------------------|------------------|-9-9-9-9-9-9-9-9--|-9-9-9-9-9-9-9-9---|
E|------------------|------------------|-7-7-7-7-7-7-7-7--|-7-7-7-7-7-7-7-7---|




REFRAIN 2:

  Sousa uchuu no      SUTEEJI ni tatte    hoshi no RAITO wo            abite
    
      E    B            A      B          E    B          D
E|------------------|------------------|------------------|-------------------|
B|------------------|------------------|------------------|-------------------|
G|---9-9------------|------------------|---9-9------------|-7-7-7-7--7-7-7-7--|
D|---9-9---9-9------|---7-7---7/9--9---|---9-9---9-9------|-7-7-7-7--7-7-7-7--|
A|---7-7---9-9------|---7-7---7/9--9---|---7-7---9-9------|-5-5-5-5--5-5-5-5--|
E|---------7-7------|---5-5---5/7--7---|---------7-7------|-------------------|

 
  Mawaru MIRAA        BOORU no arashi Kagayake            motto


      E    B            A      B          E    B          D
E|------------------|------------------|------------------|-------------------|
B|------------------|------------------|------------------|-------------------|
G|---9-9------------|------------------|---9-9------------|-7-7-7-7--7-7-7-7--|
D|---9-9---9-9------|---7-7---7/9--9---|---9-9---9-9------|-7-7-7-7--7-7-7-7--|
A|---7-7---9-9------|---7-7---7/9--9---|---7-7---9-9------|-5-5-5-5--5-5-5-5--|
E|---------7-7------|---5-5---5/7--7---|---------7-7------|-------------------|



BRIDGE:

  

  Guitar 1
  Negai              todoku            hazusa
                                  
    A                  B                  E                                  
E|------------------|------------------|------------------|-------------------|
B|------------------|------------------|------------------|-------------------|
G|------------------|------------------|-----9/--11/--13/-|-14\--13\--11/--13-|
D|-7-7-7-7--7-7-7-7-|-9-9-9-9--9-9-9-9-|-----x----x----x--|--x----x-----x---x-|
A|-7-7-7-7--7-7-7-7-|-9-9-9-9--9-9-9-9-|-----7/---9/--11/-|-12\--11\---9/--11-|
E|-5-5-5-5--5-5-5-5-|-7-7-7-7--7-7-7-7-|------------------|-------------------|
 |
 |
 | Guitar 2
 |
E|------------------|------------------|------------------|-------------------|
B|------------------|------------------|------------------|-------------------|
G|------------------|------------------|-9-9-9-9--9-9-9-9-|-9-9-9-9--9-9-9-9--|
D|-7-7-7-7--7-7-7-7-|-9-9-9-9--9-9-9-9-|-9-9-9-9--9-9-9-9-|-9-9-9-9--9-9-9-9--|
A|-7-7-7-7--7-7-7-7-|-9-9-9-9--9-9-9-9-|-7-7-7-7--7-7-7-7-|-7-7-7-7--7-7-7-7--|
E|-5-5-5-5--5-5-5-5-|-7-7-7-7--7-7-7-7-|------------------|-------------------|


  Guitar 1
  Kitto        kimi  ni                deaeru
                                                          (this part w/ wah fx)
    A                  B                  C#m                                  
E|------------------|------------------|------------------|-------------------|
B|------------------|------------------|------------------|-------------------|
G|------------------|------------------|-6-6-6-6--6-6-6-6-|-------------------|
D|-7-7-7-7--7-7-7-7-|-9-9-9-9--9-9-9-9-|-6-6-6-6--6-6-6-6-|-6-4-----6-4-------|
A|-7-7-7-7--7-7-7-7-|-9-9-9-9--9-9-9-9-|-4-4-4-4--4-4-4-4-|-----6-4-----6-4---|
E|-5-5-5-5--5-5-5-5-|-7-7-7-7--7-7-7-7-|------------------|-------------------|
 |
 |
 | Guitar 2
 |
E|------------------|------------------|------------------|-------------------|
B|------------------|------------------|------------------|-------------------|
G|------------------|------------------|-6-6-6-6--6-6-6-6-|-6-6-6-6--6-6-6-6--|
D|-7-7-7-7--7-7-7-7-|-9-9-9-9--9-9-9-9-|-6-6-6-6--6-6-6-6-|-6-6-6-6--6-6-6-6--|
A|-7-7-7-7--7-7-7-7-|-9-9-9-9--9-9-9-9-|-4-4-4-4--4-4-4-4-|-4-4-4-4--4-4-4-4--|
E|-5-5-5-5--5-5-5-5-|-7-7-7-7--7-7-7-7-|------------------|-------------------|


 
  Guitar 1
  Futo          miageta              hoshi mo

    A                  B                  E                                  
E|------------------|------------------|------------|-------------------------|
B|------------------|------------------|------------|-------------------------|
G|------------------|------------------|-9/-11/-13/-|-16\-14\-13/-14/-13/-11--|
D|-7-7-7-7--7-7-7-7-|-9-9-9-9--9-9-9-9-|-x---x---x--|--x---x---x---x---x---x--|
A|-7-7-7-7--7-7-7-7-|-9-9-9-9--9-9-9-9-|-7/--9/-11/-|-14\-12\-11/-12/-11/--9--|
E|-5-5-5-5--5-5-5-5-|-7-7-7-7--7-7-7-7-|------------|-------------------------|
 |
 |
 | Guitar 2
 |
E|------------------|------------------|------------------|-------------------|
B|------------------|------------------|------------------|-------------------|
G|------------------|------------------|-9-9-9-9--9-9-9-9-|-9-9-9-9--9-9-9-9--|
D|-7-7-7-7--7-7-7-7-|-9-9-9-9--9-9-9-9-|-9-9-9-9--9-9-9-9-|-9-9-9-9--9-9-9-9--|
A|-7-7-7-7--7-7-7-7-|-9-9-9-9--9-9-9-9-|-7-7-7-7--7-7-7-7-|-7-7-7-7--7-7-7-7--|
E|-5-5-5-5--5-5-5-5-|-7-7-7-7--7-7-7-7-|------------------|-------------------|


Guitar 1 and 2

  KIRARI  to          kagayaita
    A                  B                
E|------------------|------------------|
B|------------------|------------------|
G|------------------|------------------|
D|-7-7-7-7--7-7-7-7-|-9-9-9-9--9-9-9-9-|
A|-7-7-7-7--7-7-7-7-|-9-9-9-9--9-9-9-9-|
E|-5-5-5-5--5-5-5-5-|-7-7-7-7--7-7-7-7-|



Instrumental/Solo

  Guitar 1

      E                G        A          E                G        A

E|----------15------|------------------|----------15------|-------------------|
B|---17-17--15------|--15--15--14------|---17-17--15------|--15--15---14------|
G|---16-16----------|--12--14--14------|---16-16----------|--12--14---14------|
D|------------------|------------------|------------------|-------------------|
A|------------------|------------------|------------------|-------------------|
E|------------------|------------------|------------------|-------------------|
 | 
 |
 |
 | Guitar 2
 |
E|------------------|------------------|------------------|-------------------|
B|------------------|------------------|------------------|-------------------|
G|---9-9---9-9-9-x--|------------------|---9-9---9-9-9-x--|-------------------|
D|---9-9---9-9-9-x--|---5-x-5---7------|---9-9---9-9-9-x--|---5-x-5---7-------|
A|---7-7---9-9-9-x--|---5-x-5---7------|---7-7---7-7-7-x--|---5-x-5---7-------|
E|------------------|---3-x-3---5------|------------------|---3-x-3---5-------|


  Guitar 1

      E                G        A          E                G        A
                                                            (pick scrape)
E|----------15------|------------------|----------15------|-x-----------------|
B|---17-17--15------|--15--15--14------|---17-17--15------|---x---------------|
G|---16-16----------|--12--14--14------|---16-16----------|-----x-------------|
D|------------------|------------------|------------------|-------x-----------|
A|------------------|------------------|------------------|---------x---------|
E|------------------|------------------|------------------|-----------x-------|
 | 
 |
 |
 | Guitar 2
 |
E|------------------|------------------|------------------|-------------------|
B|------------------|------------------|------------------|-------------------|
G|---9-9---9-9-9-x--|------------------|---9-9---9-9-9-x--|-------------------|
D|---9-9---9-9-9-x--|---5-x-5---7------|---9-9---9-9-9-x--|---5-x-5---7-------|
A|---7-7---9-9-9-x--|---5-x-5---7------|---7-7---7-7-7-x--|---5-x-5---7-------|
E|------------------|---3-x-3---5------|------------------|---3-x-3---5-------|



VERSE 5

    Sakasama ni        tondeite mo        yubi wo sasarete mo
                                                              
      B                  D      E          B                  D      E

E|------------------|------------------|------------------|-------------------|
B|------------------|------------------|------------------|-------------------|
G|------------------|---7-x-7---9------|------------------|---7-x-7---9-------|
D|---9-9---9-9-9-x--|---7-x-7---9------|---9-9---9-9-9-x--|---7-x-7---9-------|
A|---9-9---9-9-9-x--|---5-x-5---7------|---9-9---9-9-9-x--|---5-x-5---7-------|
E|---7-7---7-7-7-x--|------------------|---7-7---7-7-7-x--|-------------------|


    Chitto mo          kizuki wa shinai SUPEEPUURENJAA

      B                  D      E          B                  D      

E|------------------|------------------|------------------|-------------------|
B|------------------|------------------|------------------|-------------------|
G|------------------|---7-x-7---9------|------------------|--7-7--7-7--7-7----|
D|---9-9---9-9-9-x--|---7-x-7---9------|---9-9---9-9-9-x--|--7-7--7-7--7-7----|
A|---9-9---9-9-9-x--|---5-x-5---7------|---9-9---9-9-9-x--|--5-5--5-5--5-5----|
E|---7-7---7-7-7-x--|------------------|---7-7---7-7-7-x--|-------------------|



REFRAIN 3:

  Sousa ima shika nai  Tobidasunda      [SUTAAPYONJANPU]
    
      E    B            A      B          E    B          D
E|------------------|------------------|------------------|-------------------|
B|------------------|------------------|------------------|-------------------|
G|---9-9------------|------------------|---9-9------------|-7-7-7-7--7-7-7-7--|
D|---9-9---9-9------|---7-7---7/9--9---|---9-9---9-9------|-7-7-7-7--7-7-7-7--|
A|---7-7---9-9------|---7-7---7/9--9---|---7-7---9-9------|-5-5-5-5--5-5-5-5--|
E|---------7-7------|---5-5---5/7--7---|---------7-7------|-------------------|

 
  Koko de yuuki dashite tobidasunda      Akarui hoshi e


      E    B            A      B          E    B          D
E|------------------|------------------|------------------|-------------------|
B|------------------|------------------|------------------|-------------------|
G|---9-9------------|------------------|---9-9------------|-7-----------------|
D|---9-9---9-9------|---7-7---7/9--9---|---9-9---9-9------|-7-----------------|
A|---7-7---9-9------|---7-7---7/9--9---|---7-7---9-9------|-5-----------------|
E|---------7-7------|---5-5---5/7--7---|---------7-7------|-------------------|

                                    Aw!!!!!!!

    D E    D E    D E    D E    D E
    
E|-------------------------------------|
B|-------------------------------------|
G|--7-9-9--7-9-9--7-9-9--7-9-9--7-9-9--|
D|--7-9-9--7-9-9--7-9-9--7-9-9--7-9-9--|
A|--5-7-7--5-7-7--5-7-7--5-7-7--5-7-7--|
E|-------------------------------------|



    ICHIDO SHIKANAI JINSEI HORA          MAE WO MUITE IKOU YO
  
    A B          A B    A B    A B        A B          A B    A B    A B
E|-------------------------------------|--------------------------------------|
B|-------------------------------------|--------------------------------------|
G|-------------------------------------|--------------------------------------|
D|-7/9--9-9-9-9--7/9-9--7/9-9--7/9-9-9-|--7/9--9-9-9-9--7/9-9--7/9-9--7/9-9-9-|
A|-7/9--9-9-9-9--7/9-9--7/9-9--7/9-9-9-|--7/9--9-9-9-9--7/9-9--7/9-9--7/9-9-9-|
E|-5/7--7-7-7-7--5/7-7--5/7-7--5/7-7-7-|--5/7--7-7-7-7--5/7-7--5/7-7--5/7-7-7-|


  ITSUKA WA TADORI TSUKERU HAZUSA          NIHON MADE HASHIRINUKETE YUKUZO

    A B          A B    A B    A B        A B          A B    A B    A B
E|-------------------------------------|--------------------------------------|
B|-------------------------------------|--------------------------------------|
G|-------------------------------------|--------------------------------------|
D|-7/9--9-9-9-9--7/9-9--7/9-9--7/9-9-9-|--7/9--9-9-9-9--7/9-9--7/9-9--7/9-9-9-|
A|-7/9--9-9-9-9--7/9-9--7/9-9--7/9-9-9-|--7/9--9-9-9-9--7/9-9--7/9-9--7/9-9-9-|
E|-5/7--7-7-7-7--5/7-7--5/7-7--5/7-7-7-|--5/7--7-7-7-7--5/7-7--5/7-7--5/7-7-7-|

  
    Guitar 1

E|-------------------------------------|--------------------------------------|
B|-------------------------------------|--------------------------------------|
G|-------------------------------------|--6-7--9-9------1---------------------|
D|-------------------------------------|--6-7--9-9------2---------------------|
A|------------2--0------ --------------|--4-5--7-7------2---------------------|
E|---0--2--4--------4--2- -------------|----------------0---------------------|
 |
 |  Guitar 2
 |
E|-------------------------------------|--------------------------------------|
B|-------------------------------------|--------------------------------------|
G|-------------------------------------|--6-7--9-9------1---------------------|
D|---------6--9--7--6--7---------------|--6-7--9-9------2---------------------|
A|---7--9------------------------------|--4-5--7-7------2---------------------|
E|-------------------------------------|----------------0---------------------|
Suggest correction
Creating personal tab
Creating personal tab
You can edit any tab online and save it as your Personal.

You can edit, replace or remove any tab part or add personal notes – all changes will be seen only by you.

Personal tabs can be accessed anytime from any device, even offline.
Learn more »
Give kudos to tab author, rate the tab!
1 2 3 4 5
comments
print report bad tab
guest
You may want to rate the tab now too:
select rating
Wanna post a correction for this tab? Suggest correction