Oops, an error
Loading. Please wait.

The Warrior tab

version 1
version 1

Whole song

Interactive

by Scandal
11,644 views 15 this week
2 commentsread comments
1 2 3 4 5
x 4
add to favorites
×
Save as Personal and add changes to this tab that will be seen only by you. Learn more ›
×
You can save this tab as Personal to edit and correct it or add notes. All changes will be seen only by you. Learn more »
launch autoscroll
font size
0
reset
how to read this tab
guitar tuner
backing track
0:00
0:00
edit
Autoscroll
slow
fast
+/-
esc
set tempo
stop
Author
Difficulty
(Rhythm Guitar)
                        INTRO
e|-------------------------------------------------|
B|-3-----3-----2-----2-----2-----3-----------------|
G|-2-----2-----2-----2-----2-----4-----4-----------|(x2)
D|-0-----0-----2-----2-----2-----4-----4-----------|
A|-0-----------0-----0-----0-----2-----2/0---------|
E|-------3-----------------------------------------|


                        VERSE
e|-------------------------------------------------|
B|----2-----2-----2-----2-----0-----0-----0--------|
G|----2-----2-----2-----2-----0-----0-----0--------|
D|----2-----2-----2-----2--------------------------|
A|-0-----0-----0-----0-----------------------------|
E|-------------------------3-----3-----3-----3-----|
  ......................PM.........................

e|-------------------------------------------------|
B|----2-----2-----2-----2-----3-----3-----3--------|
G|----2-----2-----2-----2-----4-----4-----4--------|
D|----2-----2-----2-----2-----4-----4-----4--------|
A|-0-----0-----0-----0-----2-----2-----2-----------|
E|-------------------------------------------------|
  ......................PM.........................

e|-------------------------------------------------|
B|----2-----2-----2-----2-----0-----0-----0--------|
G|----2-----2-----2-----2-----0-----0-----0--------|
D|----2-----2-----2-----2--------------------------|
A|-0-----0-----0-----0-----------------------------|
E|-------------------------3-----3-----3-----3-----|
  ......................PM.........................

e|-------------------------------------------------|
B|----2-----2-----2-----2-----3-----3-----3--------|
G|----2-----2-----2-----2-----4-----4-----4--------|
D|----2-----2-----2-----2-----4-----4-----4--------|
A|-0-----0-----0-----0-----2-----2-----2-----------|
E|-------------------------------------------------|
  ......................PM.........................

e|-------------------------------------------------|
B|----2-----2-----2-----2-----0-----0-----0--------|
G|----2-----2-----2-----2-----0-----0-----0--------|
D|----2-----2-----2-----2--------------------------|
A|-0-----0-----0-----0-----------------------------|
E|-------------------------3-----3-----3-----3-----|
  ......................PM.........................

e|-----------------------------2-----2-----2-------|
B|-0-----0-----0-----0---------2-----2-----2-------|
G|-0-----0-----2-----0---------2-----2-----2-------|
D|--------------------------0-----0-----0-----0----|
A|----3-----3-----3-----3--------------------------|
E|-------------------------------------------------|
  ......................PM.........................

e|-------------------------------------------------|
B|-2-----3-----3-----3-----------2-----2-----2-----|
G|-2-----3-----3-----3-----------2-----2-----2-----|
D|-2-----4-----4-----4-----------2-----2-----2-----|
A|----2-----2-----2-----2-----0-----0-----0-----0--|
E|-------------------------------------------------|
  ......................PM.........................

e|-------------------------------------------------|
B|-2-----0-----0-----0----------2-----2-----2------|
G|-2-----0-----0-----0----------2-----2-----2------|
D|-2----------------------------2-----2-----2------|
A|---------------------------0-----0-----0-----0---|
E|----3-----3-----3-----3--------------------------|
  ......................PM.........................

e|-------------------------------------------------|
B|-2-----4-----4-----4---------3~~~----------------|
G|-2-----3-----3-----3---------2~~~----------------|
D|-2-----3-----3-----3---------0~~~----------------|
A|----2-----2-----2-----2--------------------------|
E|-----------------------------3~~~----------------|
  ..........PM...........

e|-------------------------------------------------|
B|------2-----2-----3~~~---------------------------|
G|------2-----2-----2~~~---------------------------|
D|------2-----2-----0~~~---------------------------|
A|------0-----0------------------------------------|
E|------------------3~~~---------------------------|

e|-------------------------------------------------|
B|------3-----3-----2-----2------------------------|
G|------2-----2-----2-----2------------------------|
D|------0-----0-----2-----2------------------------|
A|------0-----------0-----0------------------------|
E|------------3------------------------------------|

e|-------------------------------------------------|
B|-----2-----3-----3-----3-----2-2-----------------|
G|-----2-----4-----2-----2-----2-2-----------------|
D|-----2-----4-----0-----0-----2-2-----------------|
A|-----0-----2-----0-----------0-0-----------------|
E|-----------------------3-------------------------|

e|-------------------------------------------------|
B|-----2-----3-----3-----3-----2-2-----------------|
G|-----2-----4-----2-----2-----2-2-----------------|
D|-----2-----4-----0-----0-----2-2-----------------|
A|-----0-----2-----0-----------0-0-----------------|
E|-----------------------3-------------------------|

e|-------------------------------------------------|
B|-----2-----3-----3-3-3-2-2-2-2-2-----------------|
G|-----2-----4-----2-2-2-2-2-2-2-2-----------------|
D|-----2-----4-----0-0-0-2-2-2-2-2-----------------|
A|-----0-----2-----0-0-0-0-0-0-0-0-----------------|
E|-------------------------------------------------|

e|-------------------------------------------------|
B|---3----3----3-------3-----3-----3-----2-2-------|
G|---2----2----2-------0-----2-----2-----2-2-------|
D|---0----0----0-------0-----0-----0-----2-2-------|
A|---0----0----0-------------0-----------0-0-------|
E|---2----2----2-------3-----------3---------------|

e|-------------------------------------------------|
B|---2-----3-----3----3-------2-2------------------|
G|---2-----4-----2----2-------2-2------------------|
D|---2-----4-----0----0-------2-2------------------|
A|---0-----2-----0------------0-0------------------|
E|--------------------3----------------------------|

e|-------------------------------------------------|
B|---2-----3--------2-----2-----2-----2------------|
G|---2-----4--------2-----2-----2-----2------------|
D|---2-----4--------2-----2-----2-----2------------|
A|---0-----2-----0-----0-----0-----0-----0---------|
E|-------------------------------------------------|
                 ................PM................

e|-------------------------------------------------------|
B|--2-----3-----3-----3----------2-----2-----2-----2-----|
G|--2-----3-----3-----3----------2-----2-----2-----2-----|
D|--2-----4-----4-----4----------2-----2-----2-----2-----|
A|-----2-----2-----2------2---0-----0-----0-----0-----0--|
E|-------------------------------------------------------|
  ..........................PM...........................

e|-------------------------------------------------------|
B|--2-----0-----0-----0-----0-------2-----2-----2--------|
G|--2-----0-----0-----0-----0-------2-----2-----2--------|
D|--2-------------------------------2-----2-----2--------|
A|-------------------------------0-----0-----0-----0-----|
E|-----3----3-----3------3-------------------------------|
  .........................PM............................

e|-------------------------------------------------------|
B|--2-----3-----3-----3----------2-----2-----2-----2-----|
G|--2-----3-----3-----3----------2-----2-----2-----2-----|
D|--2-----4-----4-----4----------2-----2-----2-----2-----|
A|-----2-----2-----2------2---0-----0-----0-----0-----0--|
E|-------------------------------------------------------|
  ..........................PM...........................

e|-------------------------------------------------|
B|--2----0----0----0----0----0----0----0-----------|
G|--2----0----0----0----0----0----2----0-----------|
D|--2----------------------------------------------|
A|-------------------------------------------------|
E|-----3----3----3----3----3----3----3----3--------|
  ......................PM.........................

e|-------------------------------------------------|
B|----2-----2-----2-----2-----3-----3-----3--------|
G|----2-----2-----2-----2-----4-----4-----4--------|
D|----2-----2-----2-----2-----4-----4-----4--------|
A|-0-----0-----0-----0-----2-----2-----2------2----|
E|-------------------------------------------------|
  ......................PM.........................

e|-------------------------------------------------|
B|----2-----2-----2-----2-----0-----0-----0--------|
G|----2-----2-----2-----2-----0-----0-----0--------|
D|----2-----2-----2-----2--------------------------|
A|-0-----0-----0-----0-----------------------------|
E|-------------------------3-----3-----3-----3-----|
  ......................PM.........................

e|-------------------------------------------------|
B|----2-----2-----2-----2-----3-----3-----3--------|
G|----2-----2-----2-----2-----4-----4-----4--------|
D|----2-----2-----2-----2-----4-----4-----4--------|
A|-0-----0-----0-----0-----2-----2-----2------2----|
E|-------------------------------------------------|
  ......................PM.........................

e|-------------------------------------------------|
B|-3~~~---------2----2-----------------------------|
G|-2~~~---------2----2-----------------------------|
D|-0~~~---------2----2-----------------------------|
A|--------------0----0-----------------------------|
E|-3~~~--------------------------------------------|

e|-------------------------------------------------|
B|-3~~~--------------------------------------------|
G|-2~~~--------------------------------------------|
D|-0~~~--------------------------------------------|
A|-------------------------------------------------|
E|-3~~~--------------------------------------------|

e|-------------------------------------------------|
B|-3---3-------2-2---2-----3-----------------------|
G|-2---2-------2-2---2-----4-----------------------|
D|-0---0-------2-2---2-----4-----------------------|
A|-0-----------0-0---0-----2-----------------------|
E|-----3-------------------------------------------|

e|-------------------------------------------------|
B|-3---3-------2-2---2-----3-----------------------|
G|-2---2-------2-2---2-----4-----------------------|
D|-0---0-------2-2---2-----4-----------------------|
A|-0-----------0-0---0-----2-----------------------|
E|-----3-------------------------------------------|

e|-------------------------------------------------|
B|-3---3-------2-2---2-----3-----------------------|
G|-2---2-------2-2---2-----4-----------------------|
D|-0---0-------2-2---2-----4-----------------------|
A|-0-----------0-0---0-----2-----------------------|
E|-----3-------------------------------------------|

e|-------------------------------------------------|
B|-3-3-3-2-2-2-2-2-----3-3-3--3--3-----------------|
G|-2-3-3-2-2-2-2-2-----2-2-2--0--0-----------------|
D|-2-2-2-2-2-2-2-2-----0-0-0--0--0-----------------|
A|-0-0-0-0-0-0-0-0-----0-0-0-----------------------|
E|---------------------2-2-2--3--3-----------------|

e|-------------------------------------------------|
B|-3---3-------2-2---2-----3-----------------------|
G|-2---2-------2-2---2-----4-----------------------|
D|-0---0-------2-2---2-----4-----------------------|
A|-0-----------0-0---0-----2-----------------------|
E|-----3-------------------------------------------|

e|-------------------------------------------------|
B|-3---3-------2-2---2-----3-----------------------|
G|-2---2-------2-2---2-----4-----------------------|
D|-0---0-------2-2---2-----4-----------------------|
A|-0-----------0-0---0-----2-----------------------|
E|-----3-------------------------------------------|

e|-------------------------------------------------|
B|-3---3-------2-2---2-----3-----------------------|
G|-2---2-------2-2---2-----4-----------------------|
D|-0---0-------2-2---2-----4-----------------------|
A|-0-----------0-0---0-----2-----------------------|
E|-----3-------------------------------------------|

e|-------------------------------------------------|
B|----3----------------3---------------------------|
G|----2----------------2---------------------------|
D|----0----------------0---------------------------|
A|-------------------------------------------------|
E|----3----------------3---------------------------|

e|-------------------------------------------------|
B|----3----------------3----------2---2------------|
G|----2----------------2----------2---2------------|
D|----0----------------0----------2---2------------|
A|--------------------------------0---0------------|
E|----3----------------3---------------------------|

e|-------------------------------------------------|
B|----3----------------3---------------------------|
G|----2----------------2---------------------------|
D|----0----------------0---------------------------|
A|-------------------------------------------------|
E|----3----------------3---------------------------|

e|-------------------------------------------------|
B|----3----------------3----------2---2------------|
G|----2----------------2----------2---2------------|
D|----0----------------0----------2---2------------|
A|--------------------------------0---0------------|
E|----3----------------3---------------------------|

e|-------------------------------------------------|
B|----3----------------3---------------------------|
G|----2----------------2---------------------------|
D|----0----------------0---------------------------|
A|-------------------------------------------------|
E|----3----------------3---------------------------|

e|-------------------------------------------------|
B|----3----------------3----------2---2------------|
G|----2----------------2----------2---2------------|
D|----0----------------0----------2---2------------|
A|--------------------------------0---0------------|
E|----3----------------3---------------------------|

e|-------------------------------------------------|
B|----3----------------3---------------------------|
G|----2----------------2---------------------------|
D|----0----------------0---------------------------|
A|-------------------------------------------------|
E|----3----------------3---------------------------|

e|-------------------------------------------------|
B|----3----------------3----------2---2------------|
G|----2----------------2----------2---2------------|
D|----0----------------0----------2---2------------|
A|--------------------------------0---0------------|
E|----3----------------3---------------------------|

e|-------------------------------------------------|
B|-3---3-------2-2---2-----3-----------------------|
G|-2---2-------2-2---2-----4-----------------------|
D|-0---0-------2-2---2-----4-----------------------|
A|-0-----------0-0---0-----2-----------------------|
E|-----3-------------------------------------------|

e|-------------------------------------------------|
B|-3---3-------2-2---2-----3-----------------------|
G|-2---2-------2-2---2-----4-----------------------|
D|-0---0-------2-2---2-----4-----------------------|
A|-0-----------0-0---0-----2-----------------------|
E|-----3-------------------------------------------|

e|-------------------------------------------------|
B|-3---3-------2-2---2-----3-----------------------|
G|-2---2-------2-2---2-----4-----------------------|
D|-0---0-------2-2---2-----4-----------------------|
A|-0-----------0-0---0-----2-----------------------|
E|-----3-------------------------------------------|

e|-------------------------------------------------|
B|-3-3-3-2-2-2-2-2-----3-3-3--3--3-----------------|
G|-2-3-3-2-2-2-2-2-----2-2-2--0--0-----------------|
D|-2-2-2-2-2-2-2-2-----0-0-0--0--0-----------------|
A|-0-0-0-0-0-0-0-0-----0-0-0-----------------------|
E|---------------------2-2-2--3--3-----------------|

e|-------------------------------------------------|
B|-3-3-3-2-2-2-2-2-----3-3-3--3--3-----------------|
G|-2-3-3-2-2-2-2-2-----2-2-2--0--0-----------------|
D|-2-2-2-2-2-2-2-2-----0-0-0--0--0-----------------|
A|-0-0-0-0-0-0-0-0-----0-0-0-----------------------|
E|---------------------2-2-2--3--3-----------------|

e|-------------------------------------------------|
B|-3---3-------2-2---2-----3-----------------------|
G|-2---2-------2-2---2-----4-----------------------|
D|-0---0-------2-2---2-----4-----------------------|
A|-0-----------0-0---0-----2-----------------------|
E|-----3-------------------------------------------|

e|-------------------------------------------------|
B|-3---3-------2-2---2-----3-----------------------|
G|-2---2-------2-2---2-----4-----------------------|
D|-0---0-------2-2---2-----4-----------------------|
A|-0-----------0-0---0-----2-----------------------|
E|-----3-------------------------------------------|

e|-------------------------------------------------|
B|-3---3-------2-2---2-----3-----------------------|
G|-2---2-------2-2---2-----4-----------------------|
D|-0---0-------2-2---2-----4-----------------------|
A|-0-----------0-0---0-----2-----------------------|
E|-----3-------------------------------------------|

e|-------------------------------------------------|
B|-3---3-------2-2---2-----3-----------------------|
G|-2---2-------2-2---2-----4-----------------------|
D|-0---0-------2-2---2-----4-----------------------|
A|-0-----------0-0---0-----2-----------------------|
E|-----3-------------------------------------------|

e|-------------------------------------------------|
B|-3---3-------2-2---2-----3-----------------------|
G|-2---2-------2-2---2-----4-----------------------|
D|-0---0-------2-2---2-----4-----------------------|
A|-0-----------0-0---0-----2-----------------------|
E|-----3-------------------------------------------|

e|-------------------------------------------------|
B|-3---3-------2-2---2-----3-----------------------|
G|-2---2-------2-2---2-----4-----------------------|
D|-0---0-------2-2---2-----4-----------------------|
A|-0-----------0-0---0-----2-----------------------|
E|-----3-------------------------------------------|

e|-------------------------------------------------|
B|-3---3-------2-2---2-----3-----------------------|
G|-2---2-------2-2---2-----4-----------------------|
D|-0---0-------2-2---2-----4-----------------------|
A|-0-----------0-0---0-----2-----------------------|
E|-----3-------------------------------------------|

e|-------------------------------------------------|
B|-3---3-------2-2---2-----3-----------------------|
G|-2---2-------2-2---2-----4-----------------------|
D|-0---0-------2-2---2-----4-----------------------|
A|-0-----------0-0---0-----2-----------------------|
E|-----3-------------------------------------------|

e|-------------------------------------------------|
B|-3---3-------2-2---2-----3-----------------------|
G|-2---2-------2-2---2-----4-----------------------|
D|-0---0-------2-2---2-----4-----------------------|
A|-0-----------0-0---0-----2-----------------------|
E|-----3-------------------------------------------|

e|-------------------------------------------------|
B|-3---3-------2-2---2-----3-----------------------|
G|-2---2-------2-2---2-----4-----------------------|
D|-0---0-------2-2---2-----4-----------------------|
A|-0-----------0-0---0-----2-----------------------|
E|-----3-------------------------------------------|

/  = Slide
~  = Hold
PM = Palm Mute

Thats it for the rhythm guitar :) 
Any corrections would be great, if you see any!



(Lead Guitar)

e|---10------------------------10---9---9/7--------|
B|-------9----10-----------------------------------|
G|-------------------------------------------------|
D|-------------------------------------------------|
A|-------------------------------------------------|
E|-------------------------------------------------|

e|----------10--9--------------------------------------|
B|---10---------------10-------10fb--------------------|
G|------------------------------9fb--(9)fb--7-----7----|
D|---------------------------------------------9-----9-|
A|-----------------------------------------------------|
E|-----------------------------------------------------|

e|------------7-------------------------------------|
B|-------------------------5-----8-----10-----8-----|
G|--------7------------6----------------------------|
D|----9------------7--------------------------------|
A|--------------------------------------------------|
E|--------------------------------------------------|

e|--------------------------------------------------|
B|----------5---------------------------7-----------|
G|------6---------------9-------7----------------7--|
D|--7-----------------------------------------------|
A|--------------------------------------------------|
E|--------------------------------------------------|

e|--------------------------------------------------|
B|-----------------------8-----10-----8------8------|
G|----------5---------------------------------------|
D|------6-------------------------------------------|
A|--7-----------------------------------------------|
E|--------------------------------------------------|

e|--------------------------------------------------|
B|--8-----10----8-----8--------------------5--------|
G|-----------------------------------6--------------|
D|-----------------------------7--------------------|
A|--------------------------------------------------|
E|--------------------------------------------------|

e|--------------------------------------------------|
B|------------7--------------------------5----------|
G|--9----7---------7---------------6----------------|
D|--------------------------7-----------------------|
A|--------------------------------------------------|
E|--------------------------------------------------|

e|--------------------------------------------------|
B|--8-----10----8--------------------------5--------|
G|-----------------------------------6--------------|
D|-----------------------------7--------------------|
A|--------------------------------------------------|
E|--------------------------------------------------|

e|--------------------------------------------------|
B|---------7------------------3~~~------------------|
G|---7------------------------2~~~------------------|
D|----------------------------0~~~------------------|
A|--------------------------------------------------|
E|---------------7\-----------3~~~------------------|

e|--------------------------------------------------|
B|--2----2----------3~~~----------------------------|
G|--2----2----------2~~~----------------------------|
D|--2----2----------0~~~----------------------------|
A|--0----0------------------------------------------|
E|------------------3~~~----------------------------|

e|---------------------------------------------------|
B|--3----3---------2----2----------------------------|
G|--2----2---------2----2----------------------------|
D|--0----0---------2----2----------------------------|
A|--0--------------0----0----------------------------|
E|-------3-------------------------------------------|

e|---------------------------------------------------|
B|--2----3-------3------3---------2--2---------------|
G|--2----4-------2------2---------2--2---------------|
D|--2----4-------0------0---------2--2---------------|
A|--0----2-------0----------------0--0---------------|
E|----------------------3----------------------------|

e|---------------------------------------------------|
B|---------------------------------------------------|
G|---6----4------------------------------------------|
D|------------4--------------------------------------|
A|-----------------0----5----------------------------|
E|---------------------------------------------------|

e|---------------------------------------------------|
B|--2-----3--------3-----------2------0--------------|
G|--2-----4------------2-------------------2---------|
D|--2-----4------------------------------------------|
A|--0-----2----------------0-------------------------|
E|---------------------------------------------------|

e|---------------------10--9------------10--9--------|
B|-3---3---3------------------10---------------10----|
G|-2---0---0-----------------------------------------|
D|-0---0---0-----------------------------------------|
A|-0-------------------------------------------------|
E|-2---3---3-----------------------------------------|

e|------------------------------7--------------------|
B|--11--12\10---------------7-------------------5----|
G|--------\-9------------------------------6---------|
D|---------------------9--------------7--------------|
A|---------------------------------------------------|
E|---------------------------------------------------|

e|---------------------------------------------------|
B|--8---10---8------------------------5--------------|
G|-----------------------------6---------------------|
D|-----------------------7---------------------------|
A|---------------------------------------------------|
E|---------------------------------------------------|

e|---------------------------------------------------|
B|------------7---------------------------5----------|
G|--9----7---------7----------------6----------------|
D|----------------------------7----------------------|
A|---------------------------------------------------|
E|---------------------------------------------------|

e|---------------------------------------------------|
B|---8---10---8---8-------8---10---8---8-------------|
G|---------------------------------------------------|
D|---------------------------------------------------|
A|---------------------------------------------------|
E|---------------------------------------------------|

e|---------------------------------------------------|
B|--------------5--------------------------7---------|
G|--------6------------------9-----7------------7----|
D|---7-----------------------------------------------|
A|---------------------------------------------------|
E|---------------------------------------------------|

e|---------------------------------------------------|
B|--------------5------------8-------10-------8------|
G|--------6------------------------------------------|
D|--7------------------------------------------------|
A|---------------------------------------------------|
E|---------------------------------------------------|

e|---------------------------------------------------|
B|-------------5--------------------7----------------|
G|-------6------------------7------------------------|
D|--7------------------------------------------------|
A|---------------------------------------------------|
E|------------------------------------------7\-------|

e|---------------------------------------------------|
B|--3~--------------------------2---2----------------|
G|--2~--------------------------2---2----------------|
D|--0~--------------------------2---2----------------|
A|------------------------------0---0----------------|
E|--3~-----------------------------------------------|

e|---------------------------------------------------|
B|--3~-----------------------------------------------|
G|--2~-----------------------------------------------|
D|--0~-----------------------------------------------|
A|---------------------------------------------------|
E|--3~-----------------------------------------------|

e|---------------------------------------------------|
B|--3----3---------2--2--2--------3------------------|
G|--2----2---------2--2--2--------4------------------|
D|--0----0---------2--2--2--------4------------------|
A|--0--------------0--0--0--------2------------------|
E|-------3-------------------------------------------|

e|---------------------------------------------------|
B|--3----3--------2--2---------6---4-----------------|
G|--2----2--------2--2------------------4------------|
D|--0----0--------2--2-----------------------0----5--|
A|--0-------------0--0-------------------------------|
E|-------3-------------------------------------------|

e|---------------------------------------------------|
B|--2----3------3-----------2-----0------------------|
G|--2----4----------2-----------------2--------------|
D|--2----4-------------------------------------------|
A|--0----2--------------0----------------------------|
E|---------------------------------------------------|

e|------------------10---9---------------------------|
B|--3----3----3--------------10----------------------|
G|--2----0----0--------------------------------------|
D|--0----0----0--------------------------------------|
A|--0------------------------------------------------|
E|--2----3----3--------------------------------------|

e|------------------------------------10----9--------|
B|----------5------------------------------------10--|
G|--6---7----------7-----6------7--------------------|
D|---------------------------------------------------|
A|---------------------------------------------------|
E|---------------------------------------------------|

e|--/7----5------------------------------------------|
B|--/7----5---5---5fb---5fb---3---2---3---2----------|
G|--------------------------------------------2---4--|
D|---------------------------------------------------|
A|---------------------------------------------------|
E|---------------------------------------------------|

e|----------------7\5/7\5---7------------------------|
B|----------------7\5/7\5---7--5--7--5\3--5--3\2--3--|
G|--2------------------------------------------------|
D|-----2fb---2fb-------------------------------------|
A|---------------------------------------------------|
E|---------------------------------------------------|

e|-5-------------------------------------------------|
B|----5fb--5fb--5fb--5fb--3---5-----5----------------|
G|---------------------------------------------------|
D|---------------------------------------------------|
A|---------------------------------------------------|
E|---------------------------------------------------|

e|---------------------------10--9------10/12\10-----|
B|-8--7------8-/-10------10---------10--10/12\10-----|
G|-------7---7-/--9----------------------------------|
D|---------------------------------------------------|
A|---------------------------------------------------|
E|---------------------------------------------------|

e|-10--9--10--9--------------------------------------|
B|---------------10----10--12------5--7--------------|
G|-----------------------------9---------7------7----|
D|-------------------------------------------9-------|
A|---------------------------------------------------|
E|---------------------------------------------------|

e|--------10------ 12\10-----10-----12--12\10--10----|
B|----10------10---12\10--10----10--12--12\10--10----|
G|-11------------------------------------------------|
D|---------------------------------------------------|
A|---------------------------------------------------|
E|---------------------------------------------------|

e|-----10-------10---10---10-------------------------|
B|-10--10---10--10---10---10------------10-----------|
G|-----------------------------9\7--11---------------|
D|---------------------------------------------------|
A|---------------------------------------------------|
E|---------------------------------------------------|

e|---------------------------------------------------|
B|-----------3-----0-------------------2-------------|
G|-2--2------2-----0---------2-----------------------|
D|-0--0------0---------------2-----------------------|
A|--------------------0---0------0--2------0---2---0-|
E|--------3-----3------------------------------------|
  ......................PM...........................

e|---------------------------------------------------|
B|----------3-----0-------------------2--------------|
G|-2--2-----2-----0---------2------------------------|
D|-0--0-----0---------------2------------------------|
A|-------------------0---0-----0---2------0---2---0--|
E|-------3------3------------------------------------|
  .......................PM..........................

e|---------------------------------------------------|
B|----------3-----0-------------------2--------------|
G|-2--2-----2-----0---------2------------------------|
D|-0--0-----0---------------2------------------------|
A|-------------------0---0-----0---2------0---2---0--|
E|-------3------3------------------------------------|
  .......................PM..........................

e|---------------------------------------------------|
B|--3------2--0-------3----3----3--------------------|
G|----2----------2----2----0----0--------------------|
D|--------------------0----0----0--------------------|
A|------0-------------0------------------------------|
E|--------------------2----3----3--------------------|

e|---------------------------------------------------|
B|--3------2--0-------3----3----3--------------------|
G|----2----------2----2----0----0--------------------|
D|--------------------0----0----0--------------------|
A|------0-------------0------------------------------|
E|--------------------2----3----3--------------------|

e|---------------------------------------------------|
B|-----------2--------------------3------0-----------|
G|---2-------------------2--2-----2------0-----------|
D|---2-------------------0--0-----0----------0-------|
A|-0---0--2-----0--2--0------------------------------|
E|-----------------------------3-----3---------------|
  ......................PM...........................

e|---------------------------------------------------|
B|-----------2--------------------3------0-----------|
G|---2-------------------2--2-----2------0-----------|
D|---2-------------------0--0-----0----------0-------|
A|-0---0--2-----0--2--0------------------------------|
E|-----------------------------3-----3---------------|
  ......................PM...........................

e|---------------------------------------------------|
B|-----------2--------------------3------0-----------|
G|---2-------------------2--2-----2------0-----------|
D|---2-------------------0--0-----0----------0-------|
A|-0---0--2-----0--2--0------------------------------|
E|-----------------------------3-----3---------------|
  ......................PM...........................

e|---------------------------------------------------|
B|-----------2--------------------3------0-----------|
G|---2-------------------2--2-----2------0-----------|
D|---2-------------------0--0-----0----------0-------|
A|-0---0--2-----0--2--0------------------------------|
E|-----------------------------3-----3---------------|
  ......................PM...........................

e|---------------------------------------------------|
B|-----------2--------------------3------0-----------|
G|---2-------------------2--2-----2------0-----------|
D|---2-------------------0--0-----0----------0-------|
A|-0---0--2-----0--2--0------------------------------|
E|-----------------------------3-----3---------------|
  ......................PM...........................

e|---------------------------------------------------|
B|-----------2--------------------3------0-----------|
G|---2-------------------2--2-----2------0-----------|
D|---2-------------------0--0-----0----------0-------|
A|-0---0--2-----0--2--0------------------------------|
E|-----------------------------3-----3---------------|
  ......................PM...........................

e|---------------------------------------------------|
B|-----------2--------------------3------0-----------|
G|---2-------------------2--2-----2------0-----------|
D|---2-------------------0--0-----0----------0-------|
A|-0---0--2-----0--2--0------------------------------|
E|-----------------------------3-----3---------------|
  ......................PM...........................

e|---------------------------------------------------|
B|-----------2--------------------3------0-----------|
G|---2-------------------2--2-----2------0-----------|
D|---2-------------------0--0-----0----------0-------|
A|-0---0--2-----0--2--0------------------------------|
E|-----------------------------3-----3---------------|
  ......................PM...........................

e|---------------------------------------------------|
B|-----------2--------------------3------0-----------|
G|---2-------------------2--2-----2------0-----------|
D|---2-------------------0--0-----0----------0-------|
A|-0---0--2-----0--2--0------------------------------|
E|-----------------------------3-----3---------------|
  ......................PM...........................

e|---------------------------------------------------|
B|-----------2--------------------3------0-----------|
G|---2-------------------2--2-----2------0-----------|
D|---2-------------------0--0-----0----------0-------|
A|-0---0--2-----0--2--0------------------------------|
E|-----------------------------3-----3---------------|
  ......................PM...........................

That's it for lead guitar :)
Again, if you notice mistakes etc.

fb = full bend
\  = slide down
/  = slide up
PM = palm mute

            
            
Suggest correction
Creating personal tab
Creating personal tab
You can edit any tab online and save it as your Personal.

You can edit, replace or remove any tab part or add personal notes – all changes will be seen only by you.

Personal tabs can be accessed anytime from any device, even offline.
Learn more »
comments
print report bad tab
2 comments total.
0 reply
saintjames72 10 Aug 26, 2016 01:15 PM

this sucks... its just a bunch of numbers. you dont list verse chorus distinction. its long as hell and unusable....

0 reply
ZeroFighter91 47 Jun 14, 2017 04:25 PM

Can confirm, it sucks and nothing adds up to the song.

guest
You may want to rate the tab now too:
select rating
Wanna post a correction for this tab? Suggest correction