Oops, an error
Loading. Please wait.

Aisle 10 Hello Alison Bass Tab

5,348 views 1 this week
2 commentsread comments
1 2 3 4 5
x 4
add to favorites
launch autoscroll
font size
0
reset
guitar tuner
Autoscroll
slow
fast
+/-
esc
set tempo
stop
Help us to improve Ultimate-Guitar.com Take our survey!
×
Author
Band: Scapegoat Wax
Song: Aisle 10 (Hello Alison)
Bass riff

This is my first tab but its 100% accurate.
I can only really hear the bass riff on the video game Jet Set Radio Future. Which im 
you found is where you found this song.
Please review and rate!!!

G------------------------------------------------0----|
D--------------------------------0-1-0-1-----0-1------|
A--------0-1-0-1----0-1-0---3--3----------------------|
E--3--3-----------------------------------------------|

G--------------------------------------------5--------|
D---------------------------------0-1--(3)-5----------|
A--------0-1-0-1----0-1-0---3--3----------------------|
E--3--3-----------------------------------------------|

the 3 in parenthesis (F) is somtimes plyed and sometimes not.
Suggest correction
comments
print report bad tab
2 comments total.
0 reply
nickbrick 175 Feb 23, 2009 10:21 AM

This sounds right on. Thanks a lot for this tab, JSRF is one of my all time favorite games.

0 reply
zaoXTreme 116 Jan 30, 2013 05:59 PM

Really great tab bro, keep up the good work.

guest
You may want to rate the tab now too:
select rating
Wanna post a correction for this tab? Suggest correction