Oops, an error
Loading. Please wait.

Aisle 10 Hello Alison Tab

version 1
version 1

Whole song

2,687 views 3 this week
2 commentsread comments
1 2 3 4 5
accurate
x 6
add to favorites
launch autoscroll
font size
0
reset
how to read this tab
guitar tuner
Autoscroll
slow
fast
+/-
esc
set tempo
stop
Help us to improve Ultimate-Guitar.com Take our survey!
×
Okay, I'm pretty sure this is right. I couldn't find this tab anywhere else so I did it
myself. This is the whole song. This is done on acoustic guitar, the riff is up for
electric but with no effects.

   Main part (through whole song)
  e|-5---5-------6---6------------------|
  B|-5---5-------6---6------------------|
  G|-5---5-------6---6------------------|
  D|-7---7-------8---8------------------|
  A|-7---7-------8---8------------------|
  E|-5---5-------6---6------------------|
     
   riff

  e|-5---3-------6-4-6------------------|
  B|---5--------------------------------|
  G|------------------------------------|
  D|------------------------------------|
  A|------------------------------------|
  E|------------------------------------|

If you have questions, comments, or corrections, contact me at 

djthisguy@yahoo.com
Suggest correction
comments
print report bad tab
2 comments total.
0 reply
Kuhstoss 10 wrote on November 8 2008, 10:09 am

when i get new strings i'm definitly trying this out. i'll let you know how i think about soon. thanx for tabbing this song i love this song.

0 reply
dodgyd55 10 wrote on June 16 2009, 08:45 pm

the little riff is missing a note at the end of the first part.

e|-5---3-------6-4-6------------------|
B|---5---1----------------------------|
G|------------------------------------|
D|------------------------------------|
A|------------------------------------|
E|------------------------------------|

e|-5---3-------6-4-6------------------|
B|---5--------------------------------|
G|------5-----------------------------|
D|------------------------------------|
A|------------------------------------|
E|------------------------------------|

guest
You may want to rate the tab now too:
select rating
Please do not post tabs as comments. Select "correction" instead!