Oops, an error
Loading. Please wait.

Chaosweaver Tab

version 1
version 1

Whole song

Interactive

6,016 views 1 this week
2 commentsread comments
1 2 3 4 5
accurate
x 4
add to favorites
launch autoscroll
font size
0
reset
how to read this tab
guitar tuner
Autoscroll
slow
fast
+/-
esc
set tempo
stop
Help us to improve Ultimate-Guitar.com Take our survey!
×
7-String Standard Tuning: BEADGBE

/ = Slide too next note
\ = Slide from last note
x = mute

INTRO - With lots of Flange/phase effects plus some wah i think.
Lead Guitar:
E  |-------------------------15-14-0-12-14-0----|
B  |-14-15-0-19-17-15-0-14-0-----------------15-|
G  |--------------------------------------------|
Rhythm Guitar: 
G |-4-4-4-4-4-4-4-4-7-7-7-7-7-7-7-7---------------------------------|
A |-2-2-2-2-2-2-2-2-5-5-5-5-5-5-5-5-7-7-7-7-7-7-7-7-5-5-5-5-5-5-5-5-|
E |---------------------------------5-5-5-5-5-5-5-5-3-3-3-3-3-3-3-3-|
B |-----------------------------------------------------------------|

Continue Lead Intro for x1 repeat.
Chorus Riff:
D |---------------------------------------------------------|
A |-2--2-2--2-2-5--5-5-5--5-5-5-7--7-7--7-7-5--5-5-5--5-5-5-|
E |-2--2-2--2-2-5--5-5-5--5-5-5-5--5-5--5-5-3--3-3-3--3-3-3-|
B |-0--0-0--0-0-3--3-3-3--3-3-3-5--5-5--5-5-3--3-3-3--3-3-3-|

D |-----------------------------2--2-2--2-2-----------------|
A |-2--2-2--2-2-5--5-5-5--5-5-5-0--0-0--0-0-5--5-5-5--5-5-5-|
E |-2--2-2--2-2-5--5-5-5--5-5-5-x--x-x--x-x-3--3-3-3--3-3-3-|
B |-0--0-0--0-0-3--3-3-3--3-3-3-2--2-2--2-2-3--3-3-3--3-3-3-|

Verse Riff:
D |----------------------------------|----------------------------------|
A |----------------------------------|----------------------------------|
E |----------------------------------|----------------------------------|
B |-0--0001--0--00000-0000000-000000-|-0--0001--5-4--0000000-0000000-00-|

G |-----------------------------------|-------------9-8---------------------|
D |-9-------10-9----------------------|-9------10---------------------------|
A |-----------------------------------|-------------7-6---------------------|
E |-7-------8--7----------------------|-7-------8---------------------------|
B |---000-------00000-0000000-000000--|---000------------0000000-0000000-00-|

Pre-Chorus Riff:
G |------------------------------------------|
D |-5-----9--------------7-----9-------------|
A |-5-----9--------------7-----9-------------|
E |-3-----7---9x-9/10\9--5-----7---9x-9/10\9-|
B |------------------------------------------| 

1st Guitar:
G |--------------------------------------------------------------2-4-x---|
D |-5----2-------------------------------------------------2-4-5---------|
A |-5----2---4x-4/5\4--------------------------------2-4-5---------------|
E |-3----0---------------2-0-2-0-2-0-2-0-------2-3-5---------------------|
B |--------------------------------------2-3-5---------------------------|
2nd Guitar:
G |---------------------------------------------------------------6-7-9-x-|
D |-5---------------------------------------------------------7-9---------|
A |-5----7---------------------------------------------7-9-10-------------|
E |-3----7---9x-9/10\9--------------------------7-9-10--------------------|
B |------5---------------7-5-7-5-7-5-7-5-7-8-10---------------------------|

CHORUS:

VERSE:
PRE-CHORUS:

CHORUS:

Solo Riff: I Couldn’t Figure out the solo
E |-----------------|
B |-2--2--2-22-2-0--|      X8

E |-4--4--4-44-4-2--|
B |-2--2--2-22-2-0--|     X8      

Break Riff: Let ring.
E |-----------------------------------------------|
B |-----0---------0--------0----------------------|
G |---------------------------------0--------0----|
D |-7--------5--------3---------------------------|
A |-7--------5--------3--------5--------3---------|
E |-5--------3--------1--------5--------3---------|
B |----------------------------3--------1---------|

G |---------------------------------------------------|
D |--------------------------------9999999999999999-x-|
A |---------------------------------------------------|
E |-2--2-2-2-2-2-2-2-2-2-2-2-2-2-2-7777777777777777-x-|
B |-0--0-0-0-0-0-0-0-0-0-0-0-0-0-0--------------------|

CHORUS:

CHORUS With LEAD INTRO for x1 repeat:

Outro Riff:
G |---------------------------------|
D |-5-----------5-----4-----2-------|
A |-5-----------5-----4-----2---2---|
E |-3-----------3-----2-----0---2---|
B |------0-0-0------0-----0-----0---|



        

comments
print report bad tab
2 comments total.
-1 reply
Lukeydoodly 44 wrote on April 9 2008, 05:44 pm

.....Whats with the incosistancy of the number of strings?

0 reply
the_arod 2,044 wrote on September 3 2008, 12:16 pm

he just left away the strings that aren't used in a riff

I want to post or [tab]
guest
You may want to rate the tab now too:
select rating
Please do not post tabs as comments. Select "correction" instead!