Oops, an error
Loading. Please wait.

Deviate From The Form Tab

version 1
version 1

Whole song

Interactive

4,286 views 6 this week
no commentswrite comment
1 2 3 4 5
please rate
add to favorites
launch autoscroll
font size
0
reset
how to read this tab
guitar tuner
Autoscroll
slow
fast
+/-
esc
set tempo
stop
Help us to improve Ultimate-Guitar.com Take our survey!
×
Author
#----------------------------------PLEASE NOTE-----------------------------#
# This file is the author's own work and represents their interpretation  ##
# of the song. You may only use this file for private study,              ##
# scholarship, or research.                                               ##
#---------------------------------------------------------------------------##
----------------------------------------------------------------------------##
			DEVIATE FROM THE FORM - Scar Symmetry
----------------------------------------------------------------------------
Tabbed by: Ray Eicher and Jason Becker
Email: FeCross900@aol.com

Tuning: B (7 String Guitar)

. - palm mute 			h - pinched harmonic
X - percussion mute 		ah - artificial harmonic
/ - slide up to			\ - slide down to
th - tap harmonic 		hr - natural harmonic
~ - vibrato 			"- tremolo picking
h - hammer on 			p - pull off
b - bend 			rb - raise bend    lb - lower bend
f - full bend 			h - half bend
t - tap with finger 		tb - tap at hieght of bend
p - pick when bent 		d - don't pick start of bend
> - accented note 		() - ghost note, sustained note
p - pre-bend 			w - use bar
hold - hold the bend
||o
||o  - repeat


A note to whoever decides to play this:
   This song is probably more keyboard than guitar.  Honestly I think
   the intro riff and solos might be the only guitar on the whole track.
   There is a lot of overdubbing that I know I missed, it’s just too hard
   to hear.
   I also believe that the solo may be the only place you would need a
   7-string.  So if you only have a 6-string tune each string down 5 half
   steps to B, E, A, D, F#, B.  If you do this you’re going to have to
   increase the higher octave by a half step on some of the parts.

INTRO:

e|---------------------------------------------------------------------------|
B|---------------------------------------------------------------------------|
G|---------------------------------------------------------------------------|
D|----10/9---10/9---10/9---10/9---------10/9----10/9----10/9-----14/13-------|
A|---------------------------------------------------------------------------|
E|-----8/7----8/7----8/7----8/7----------8/7-----8/7-----8/7-----12/11-------|
B|-0-0-----0------0-------0---------0-0-------0-------0-------0--------------|


e|---------------------------------------------------------------------------|
B|---------------------------------------------------------------------------|
G|---------------------------------------------------------------------------|
D|----10/9---10/9---10/9---10/9----------------------------------------------|
A|---------------------------------------------------------------------------|
E|-----8/7----8/7----8/7----8/7----------7/6-----6/5-----5/4-----4/3---------|
B|-0-0-----0------0-------0---------0-0—-5/4--0--4/3-—0--3/2--0--2/1---------|
                                         ...     ...     ...     ...

e|---------------------------------------------------------------------------|
B|---------------------------------------------------------------------------|
G|---------------------------------------------------------------------------|
D|----10/9---10/9---10/9---10/9----------16/15-----15/13-----13/8-----8/4----|
A|---------------------------------------------------------------------------|
E|-----8/7----8/7----8/7----8/7----------14/13-----13/11-----11/6-----6/2----|
B|-0-0-----0------0-------0---------0-0---------0---------0--------0---------|

Pre-Verse:  (Could be nothing but Keyboards.  Not quite sure.)

  Keyboard: (Arranged for Guitar)

e|----------------------------------------------------------|
B|----------------------------------------------------------|
G|----------------------------------------------------------|
D|----------------------------------------------------------|
A|------6----6-----6----6---6--------8----8-----8----8---8--|
E|----------------------------------------------------------|
B|--4-----4-----4-----4---4------6-----6-----6-----6---6----|
 |                                                          |
 |                                                          |
 | Guitar 1:                                                |
 |                                                          |
e|----------------------------------------------------------|
B|----------------------------------------------------------|
G|----------------------------------------------------------|
D|----------------------------------------------------------|
A|--13~~~~~~~~~~~~~~~~~~~~~~~~--11~~~~~~~~~~~~~~~~~~~~~~~~--|
E|----------------------------------------------------------|
B|----------------------------------------------------------|
 |                                                          |
 |                                                          |
 | Guitar 2:                                                |
 |                                                          |
e|----------------------------------------------------------|
B|--11~~~~~~~~~~~~~~~~~~~~~~~~~--9~~~~~~~~~~~~~~~~~~~~~~~~--|
G|----------------------------------------------------------|
D|----------------------------------------------------------|
A|----------------------------------------------------------|
E|----------------------------------------------------------|
B|----------------------------------------------------------|

e|----------------------------------------------------------|
B|----------------------------------------------------------|
G|----------------------------------------------------------|
D|----------------------------------------------------------|
A|------4----4-----4----4---4--------2----2-----2----2---2--|
E|----------------------------------------------------------|
B|--2-----2-----2-----2---2------0-----0-----0-----0---0----|
 |                                                          |
 |                                                          |
 |                                                          |
 |                                                          |
e|----------------------------------------------------------|
B|----------------------------------------------------------|
G|----------------------------------------------------------|
D|----------------------------------------------------------|
A|--8~~~~~~~~~~~~~~~~~~~~~~~~~~--9~~~~~~~~~~~~~~~~~~~~~~~~--|
E|----------------------------------------------------------|
B|----------------------------------------------------------|
 |                                                          |
 |                                                          |
 |                                                          |
 |                                                          |
e|----------------------------------------------------------|
B|--6~~~~~~~~~~~~~~~~~~~~~~~~~~--7~~~~~~~~~~~~~~~~~~~~~~~~--|
G|----------------------------------------------------------|
D|----------------------------------------------------------|
A|----------------------------------------------------------|
E|----------------------------------------------------------|
B|----------------------------------------------------------|


e|----------------------------------------------------------|
B|----------------------------------------------------------|
G|----------------------------------------------------------|
D|----------------------------------------------------------|
A|------6----6-----6----6---6--------8----8-----8----8---8--|
E|----------------------------------------------------------|
B|--4-----4-----4-----4---4------6-----6-----6-----6---6----|
 |                                                          |
 |                                                          |
 |                                                          |
 |                                                          |
e|----------------------------------------------------------|
B|----------------------------------------------------------|
G|----------------------------------------------------------|
D|----------------------------------------------------------|
A|--13~~~~~~~~~~~~~~~~~~~~~~~~--11~~~~~~~~~~~~~~~~~~~~~~~~--|
E|----------------------------------------------------------|
B|----------------------------------------------------------|
 |                                                          |
 |                                                          |
 |                                                          |
 |                                                          |
e|----------------------------------------------------------|
B|--11~~~~~~~~~~~~~~~~~~~~~~~~~--9~~~~~~~~~~~~~~~~~~~~~~~~--|
G|----------------------------------------------------------|
D|----------------------------------------------------------|
A|----------------------------------------------------------|
E|----------------------------------------------------------|
B|----------------------------------------------------------|


e|----------------------------------------------------------|
B|----------------------------------------------------------|
G|----------------------------------------------------------|
D|----------------------------------------------------------|
A|------4----4-----4----4---4--------6----6-----6----6---6--|
E|----------------------------------------------------------|
B|--2-----2-----2-----2---2------4-----4-----4-----4---4----|
 |                                                          |
 |                                                          |
 |                                                          |
 |                                                          |
e|----------------------------------------------------------|
B|----------------------------------------------------------|
G|----------------------------------------------------------|
D|----------------------------------------------------------|
A|--8~~~~~~~~~~~~~~~~~~~~~~~~~~--9~~~~~~~~~~~~~~~~~~~~~~~~--|
E|----------------------------------------------------------|
B|----------------------------------------------------------|
 |                                                          |
 |                                                          |
 |                                                          |
 |                                                          |
e|----------------------------------------------------------|
B|--6~~~~~~~~~~~~~~~~~~~~~~~~~~--7~~~~~~~~~~~~~~~~~~~~~~~~--|
G|----------------------------------------------------------|
D|----------------------------------------------------------|
A|----------------------------------------------------------|
E|----------------------------------------------------------|
B|----------------------------------------------------------|

Verse:

e|----------------------------------------------------------|
B|----------------------------------------------------------|
G|----------------------------------------------------------|
D|----------------------------------------------------------|
A|------6----6-----6----6---6--------8----8-----8----8---8--|
E|----------------------------------------------------------|
B|--4-----4-----4-----4---4------6-----6-----6-----6---6----|


e|----------------------------------------------------------|
B|----------------------------------------------------------|
G|----------------------------------------------------------|
D|----------------------------------------------------------|
A|------4----4-----4----4---4--------2----2-----2----2---2--|
E|----------------------------------------------------------|
B|--2-----2-----2-----2---2------0-----0-----0-----0---0----|


e|----------------------------------------------------------|
B|----------------------------------------------------------|
G|----------------------------------------------------------|
D|----------------------------------------------------------|
A|------6----6-----6----6---6--------8----8-----8----8---8--|
E|----------------------------------------------------------|
B|--4-----4-----4-----4---4------6-----6-----6-----6---6----|


e|----------------------------------------------------------|
B|----------------------------------------------------------|
G|----------------------------------------------------------|
D|----------------------------------------------------------|
A|------4----4-----4----4---4--------6----6-----6----6---6--|
E|----------------------------------------------------------|
B|--2-----2-----2-----2---2------4-----4-----4-----4---4----|

Bridge: (There is a lot of keyboard work here so this
             definitely might not be accurate)

e|-----------------------------------------------------|
B|-----------------------------------------------------|
G|---------4--/--6--/--8--------10--/--6--/--4---------|
D|-----------------------------------------------------|
A|--2------2--/--4--/--6--------8---/--4--/--2---------|
E|--2--------------------------------------------------|
B|--0--------------------------------------------------|

e|----------------------------------------------------------|
B|----------------------------------------------------------|
G|----------------------------------------------------------|
D|----------------------------------------------------------|
A|------6----6-----6----6---6--------6----6-----6----6------|
E|----------------------------------------------------------|
B|--4-----4-----4-----4---4------4-----4-----4-----4--------|


e|-----------------------------------------------------|
B|-----------------------------------------------------|
G|---------4--/--6--/--8--------10--/-10--/--6---------|
D|-----------------------------------------------------|
A|--2------2--/--4--/--6--------11--/--8--/--4---------|
E|--2--------------------------------------------------|
B|--0--------------------------------------------------|


e|----------------------------------------------------------|
B|----------------------------------------------------------|
G|----------------------------------------------------------|
D|----------------------------------------------------------|
A|------6----6-----6----6---6--------6----6-----6----6------|
E|----------------------------------------------------------|
B|--4-----4-----4-----4---4------4-----4-----4-----4--------|

Pre-Chorus:

e|----------------------------------------------------------|
B|----------------------------------------------------------|
G|--------11--/-10--/--6------------11---/-10--/--6---------|
D|----------------------------------------------------------|
A|--2------9--/--8--/--4------2------9---/--8--/--4---------|
E|--2-------------------------2-----------------------------|
B|--0-------------------------0-----------------------------|


e|----------------------------------------------------------|
B|----------------------------------------------------------|
G|--------11--/-10--/-11----13---------11--/-10-------------|
D|----------------------------------------------------------|
A|--2------9--/--8--/--9----11----------9--/--8-------------|
E|--2-------------------------------------------------------|
B|--0-------------------------------------------------------|


Chorus:   Play 2 times

e|------------------------------------------------------------------------|
B|------------------------------------------------------------------------|
G|------------------------------------------------------------------------|
D|------------------------------------------------------------------------|
A|---------------------------------------------2--------------------------|
E|-6-6-6-6-6-6-2-2-2-2-2-2-2-2-6-6-6-6-6-6-6-6-2---9/8---9/8---9/8---9/8--|
B|-4-4-4-4-4-4-0-0-0-0-0-0-0-0-4-4-4-4-4-4-4-4-0-0-----0-----0-----0------|
   . . . . . . . . . . . . . . . . . . . . . .


Repeat: Verse
        Bridge
        Pre-Chorus
        Chorus
        Intro


* The Solo Rhythm is a variation of the Verse riff, but I can’t
  figure it or the solo.  If anyone can figure either of these out
  please let me know.  Enjoy Everyone.

Questions, comments, or corrections
please feel free to e-mail
Me (Jason) at FeCross900@aol.com
Suggest correction
What's this?
You can suggest a correction to this tab. Community and Mods will review your correction and vote to approve or reject it.
comments
We did not receive enough feedback on this tab! Please rate:
print report bad tab
1 2 3 4 5
guest
You may want to rate the tab now too:
select rating
Please do not post tabs as comments. Select "correction" instead!