Oops, an error
Loading. Please wait.

Illusionist Tab

version 1
version 1

Solo

Whole song

Interactive

6,823 views 15 this week
no commentswrite comment
1 2 3 4 5
please rate
add to favorites
launch autoscroll
font size
0
reset
how to read this tab
guitar tuner
Autoscroll
slow
fast
+/-
esc
set tempo
stop
Help us to improve Ultimate-Guitar.com Take our survey!
×
Difficulty
advanced
e||--17^(19)--^(19)-----19\16-|-13-------------------------------|
B||---------------------------|---14-------12------7/12\7--------|
G||---------------------------|------13-11-----------------------|
D||---------------------------|---------------12\----------------|
A||---------------------------|----------------------------------|
E||---------------------------|----------------------------------|
B||---------------------------|----------------------------------|


e||---------------------------|----------------------------------|
B||---------------------------|----------------------------------|
G||------10-11-^10------------|----------------------------------|
D||\9-11-------------11-------|-9--------------------------------|
A||---------------------11----|---10-9-8~~-----------------------|
E||---------------------------|----------------------------------|
B||---------------------------|----------------------------------|


e||-----------9------13/14-10----------------------------------------|
B||-11^(12)-----9-12-----------12------------------------------------|
G||------------------------------11-------10~~~\---------------------|
D||---------------------------------12-14----------------------------|
A||------------------------------------------------------------------|
E||------------------------------------------------------------------|
B||------------------------------------------------------------------|


e||/21--/22\21--16-------------19\16-13--------------14--/17|
B||----------------19-------------------14------------------|
G||-------------------18-------------------13-\10-/11-------|
D||----------------------16\15------------------------------|
A||---------------------------------------------------------|
E||---------------------------------------------------------|
B||---------------------------------------------------------|


e||-17\16-13---------------------------------------------------------10-14/16---|
B||----------14---------------------------------------------------12------------|
G||-------------14\13----------------------------------------11-13--------------|
D||-------------------15---------------------9-11----9/11-12--------------------|
A||----------------------14-12-\11~--\8-9-11------11----------------------------|
E||-----------------------------------------------------------------------------|
B||-----------------------------------------------------------------------------|


e||(16)-13-----------13-t21-16-13----------13t19-16-13---------13-16-t17-16^(17)|
B||---------14----14--------------14----14------------14----14------------------|
G||------------13--------------------13------------------13---------------------|
D||-----------------------------------------------------------------------------|
A||-----------------------------------------------------------------------------|
E||-----------------------------------------------------------------------------|
B||-----------------------------------------------------------------------------|
Suggest correction
Give kudos to tab author, rate the tab!
1 2 3 4 5
comments
print report bad tab
guest
You may want to rate the tab now too:
select rating
Wanna post a correction for this tab? Suggest correction