Oops, an error
Loading. Please wait.

Illusionist Tab

version 1
version 1

Whole song

Interactive

6,030 views 3 this week
no commentswrite comment
1 2 3 4 5
please rate
add to favorites
launch autoscroll
font size
0
reset
how to read this tab
guitar tuner
Autoscroll
slow
fast
+/-
esc
set tempo
stop
Help us to improve Ultimate-Guitar.com Take our survey!
×
Author
Difficulty
intermediate
This is from ear and help

Tuning - BEADGBE (7 String)

|---------------------------------------------------------------------------|
|---------------------------------------------------------------------------|
|---------------9-X8----13-X6----16-16----14-X8----11-X8--------------------|
|---------------------------------------------------------------------------|
|---------------7-X8----11-X6----14-14----12-8X----9-X8---------------------|
|---------------------------------------------------------------------------|
|--Slide to 17--------------------------------------------------------------|

|----------------------------------------------------------------------------|
|----------------------------------------------------------------------------|
|--9-X6-----13-X2-----6-X6----9-X2----8-X8-----------------------------------|
|----------------------------------------------------------------------------|
|--7-X6-----11-X2-----4-X6----7-X2----6-X8-----------------------------------|
|----------------------------------------------------------------------------|
|----------------------------------------------------------------------------|

|---------------------------------------------------------------------------|
|---------------------------------------------------------------------------|
|---------------------------------------------------------------------------|
|---------------------------------------------------------------------------|
|---------------------------------------------------------------------------|
|---------------------------------------------------------------------------|
|--2~~~~2-2-2-2-0-2---0-2-2-2-2-2-0-2---0-2-3-2-2---0-2-2-2-2-2-0-2---------|

|---------------------------------------------------------------------------|
|---------------------------------------------------------------------------|
|---------------------------------------------------------------------------|
|---------------------------------------------------------------------------|
|---------------------------------------------------------------------------|
|-------------------------------------------------------------------------4-|
|0-2-2-2-2-2-0-2--0-2-3-2-2---0-2-2-3-2-2-2-0-2--0-2-2-2-2-2-0-2--0-2-3-2-2-|

|---------------------------------------------------------------------------|
|---------------------------------------------------------------------------|
|---------------------------------------------------------------------------|
|---------------------------------------------------------------------------|
|---------------------------------------------------------------------------|
|-------------------------------4---7---------------------------------------|
|---2-2-2-2-0-2---0-2-2-2-2-2-0-2---5---------------------------------------|


Pre Chorus

|---------------------------------------------------------------------------|
|---------------------------------------------------------------------------|
|---------------------------------------------------------------------------|
|-------4---5---7-------7---9---11-------4---5---7----11-9-----9-7----------|
|-----5---5---5-------9---9---9--------5---5---5----------------------------|
|---5---------------9----------------5--------------9--------7--------------|
|---3---------------7----------------3--------------7--------5--------------|

|----------------------------------------------------------------------------|
|----------------------------------------------------------------------------|
|------------------------------------9-9-9-9-8-8-8-8-11-11-11-11-10-10-10-10-|
|---------4---5---7------7---9---11------------------------------------------|
|-------5---5---5------9---9---9-----7-7-7-7-6-6-6-6-9--9--9--9--8--8--8--8--|
|-----5--------------9-------------------------------------------------------|
|-----3--------------7-------------------------------------------------------|

Chorus (again, listen to the song for the rhythm and take note of the palm muted bits 
just show the chord progression)


|----------------------------------------------------------------------------|
|----------------------------------------------------------------------------|
|----------------------------------------------------------------------------|
|----------------------------------------------------------------------------|
|-----------7-7-7-7--9-9-9-9-------------------------------------------------|
|--9-9-9-9--5-5-5-5--7-7-7-7--10-10-10-10-\-9-9-9-9--7-7-7-7--9-9-9-9--444-4-|
|--7-7-7-7---------------------8--8--8--8---7-7-7-7--4-4-4-4--6-6-6-6--222-2-|

Crazy riff

|---------------------------------------------------------------------------|
|---------------------------------------------------------------------------|
|---------------------------------------------------------------------------|
|---------------------------------------------------------------------------|
|---------------------------------------------------------------------------|
|---------------------------------------------------------------------------|
|---2--232--232-121-232-121-232~-232---232-121-232-121-232~-232-------------|


Rhythm behind first solo and the little bridge leading to the second solo, then 
the rhythm behind the second solo
is the 'Crazy riff' tabbed above.

|---------------------------------------------------------------------------|
|---------------------------------------------------------------------------|
|---------------------------------------------------------------------------|
|---------------------------------------------------------------------------|
|-----7------------------7----------------6-6-6-6----------6-6-6-6----------|
|--4--5--4---2---4---5--4---7--9--4-4-4-4-7-7-7-7-4-4-4-4--7-7-7-7----------|
|--2-----2---0---2------2---5--7----------5-5-5-5----------5-5-5-5-5-4-3-2--|


Thats all i got for now, i'll figure out the solos soon.
Suggest correction
Give kudos to tab author, rate the tab!
1 2 3 4 5
comments
print report bad tab
guest
You may want to rate the tab now too:
select rating
Wanna post a correction for this tab? Suggest correction