Oops, an error
Loading. Please wait.

Morphogenesis Tab

version 1
version 1

Solo

Interactive

16,190 views 1 this week
no commentswrite comment
1 2 3 4 5
excellent!
x 6
add to favorites
launch autoscroll
font size
0
reset
how to read this tab
guitar tuner
Tab Pro tools
  • play this tab
  • loop segment
  • change instrument
  • show fretboard
  • metronome
×
Best way to learn
"Morphogenesis"
Autoscroll
slow
fast
+/-
esc
set tempo
stop
Contributor
Scar Symmetry
Morphogenesis
Holographic Universe

It's my first tab. I
everyone likes it.

Standard 7-string B tuning

Solo 1

Lead Guitar 7 string standard B tuning
-------------------------------------------------------------~--------------|
---~-----------~---------------------------------------5-7-8-7-5------------|
-7b9---7-5-4-5b7--5-4-2-4b5-2-----------------2-4-5--------------4----------|
--------------------------------5-4h5p4-2-4-5-------------------------------|
----------------------------------------------------------------------------|
----------------------------------------------------------------------------|
----------------------------------------------------------------------------|

  P    P P
------------------------19-15----------15-19-15----------19-15---------15---|
------------------------------17----17----------17----17-------17---17------|
--~-----~------------------------16----------------16-------------16--------|
5b7-7b5-4-------------------------------------------------------------------|
----------------------------------------------------------------------------|
--------------5/7\5-3-------------------------------------------------------|
----------------------------------------------------------------------------|
            T P T P T P T P T P T P T P T P T P T P T P T P T P T P T P T P T
19-15-------201220122012201220121919121219121912191217121712171217121712151215121512--|
------17------------------------------------------------------------------------------|
---------16---------------------------------------------------------------------------|
--------------------------------------------------------------------------------------|
--------------------------------------------------------------------------------------|
--------------------------------------------------------------------------------------|


T P T P                ~                  ~
15121512-/15-14--12p10h12---12b15b12---17b19--19--17-15-14-15-15h17p15--|
------------------------------------------------------------------------|
------------------------------------------------------------------------|
------------------------------------------------------------------------|
------------------------------------------------------------------------|
------------------------------------------------------------------------|
------------------------------------------------------------------------|


----17----19-19b21b19----------------------------------------------------|
/14----14-------------13-13\12h13p12---13---12---------------------------|
-------------------------------------14----------------------------------|
-------------------------------------------------------------------------|
-------------------------------------------------------------------------|
-------------------------------------------------------------------------|
-------------------------------------------------------------------------|

2nd solo
                       W        T T P P      W^T T P P     W^T T P P    W^   
-------------/13-14-16-19-----/1721222117\14/1721242117\14/1721222117\14/1721-16---|
(12)14b12--------------------------------------------------------------------------|
---------13W*----------------------------------------------------------------------|
-----------------------------------------------------------------------------------|
-----------------------------------------------------------------------------------|
-----------------------------------------------------------------------------------|
-----------------------------------------------------------------------------------|

                                                               T
14-14\13------------------------------10h14/1714------141714---22---------------|
----------14------------------------10----------15--15------15------------------|
-------------13-\10-11b13b11------11--------------14----------------------------|
--------------------------------12----------------------------------------------|
------------------------------12------------------------------------------------|
--------------------------------------------------------------------------------|
--------------------------------------------------------------------------------|

Key

~ Vibrato
\slide down
/slide up
T tap
h hammer on
p pull off
b bend up or down
W hit whammy bar
W* push down whammy to chage pitch
W^ push whammy bar down and release
comments
print report bad tab
I want to post or [tab]
guest
You may want to rate the tab now too:
select rating
Please do not post tabs as comments. Select "correction" instead!