Oops, an error
Loading. Please wait.

The Spiral Timeshift solo tab

97 views 1 this week
2 commentsread comments
1 2 3 4 5
2 more votes to show rating
add to favorites
×
Save as Personal and add changes to this tab that will be seen only by you. Learn more ›
×
You can save this tab as Personal to edit and correct it or add notes. All changes will be seen only by you. Learn more »
launch autoscroll
font size
0
reset
how to read this tab
guitar tuner
edit
Autoscroll
slow
fast
+/-
esc
set tempo
stop
Author
Difficulty
About this tab version
Per Nilsson's guitar solo, check out the video for help too. Was this info helpful? Yes No
Video - https://www.youtube.com/watch?v=DaMfVgTa1sM

[Solo]
e|----------------------------------------------------7-----------------10---------------------------------|
B|---------------------------------------------------------------------------------------------------------|
G|---------5------------------7---------------7h9h11----11p9p7-/9h11h12----12p11p9-/11h12h14---------------|
D|---------------------------------------------------------------------------------------------------------|
A|--5h7h10-----10p7p5-/7h9h12----12p9p7h9------------------------------------------------------------------|
E|---------------------------------------------------------------------------------------------------------|

e|--10h12h14/15-14b15----14-12~~---------------------------------------------------------------------------|
B|---------------------------------------------------------------------------------------------------------|
G|---------------------------------------------------------------------------------------------------------|
D|---------------------------------------------------------------------------------------------------------|
A|---------------------------------------------------------------------------------------------------------|
E|---------------------------------------------------------------------------------------------------------|

e|---------------------------------------------------------------------------------------------------------|
B|-----------15-15-15s17--\10^--8-/12----------------------------------------------------------------------|
G|---------------------------------------------12----11---------------------------------9---11-12-11^^-9---|
D|------------------------------------------------------14-----12~~---------(5-5)-----9---9----------------|
A|--(5-5)-----------------------------------14----14-------14----------------------------------------------|
E|---------------------------------------------------------------------------------------------------------|

e|-----------------------------------------------------------12-17~~--/19~~---15-17-19-17-15----------15---|
B|-/12-10--------/15p12--------/17-----------15-----------15---------------------------------19-17b19---17~|
G|--------12p9----------14p12-------16-14-16-----16-14-16--------------------------------------------------|
D|---------------------------------------------------------------------------------------------------------|
A|---------------------------------------------------------------------------------------------------------|
E|---------------------------------------------------------------------------------------------------------|

e|--/21s22s21--17----17------------------------------------------------------------------------------------|
B|-----------------------------------12~-----/16---------------------------------------10-13-12-13-15--/20~|
G|----------------19----18-16-14-16--12~---------17--\9-9-11-12---------------------10---------------------|
D|-----------------------------------12~---------------------------10-9h10p9--9s10-------------------------|
A|--------------------------------------------------------------------------12-----------------------------|
E|---------------------------------------------------------------------------------------------------------|

e|-------------------------------------------------5---/12-10h12p10p8h10--8s9------------------------------|
B|---\5~~--9b10-9b10-9b10-9--7h9p7s5~~---------8b9---5------------------------10---8---------------/10-----|
G|---------------------------------------7---------------------------------------9----\7b8b7p5-------------|
D|----------------------------------------------------------------------------------------------7----------|
A|---------------------------------------------------------------------------------------------------------|
E|---------------------------------------------------------------------------------------------------------|

e|-----------16-17~~---------------------------------------------------------------------------------------|
B|---------------------------------------------------------------------------------------------------------|
G|--------16-----------------------------------------------------------------------------------------------|
D|--14-16--------------------------------------------------------------------------------------------------|
A|---------------------------------------------------------------------------------------------------------|
E|---------------------------------------------------------------------------------------------------------|

e|----19-19~~--16b17b16-----------------------------------------------16-16h17p16p14----14-16-17-16b17~~~~~|
B|----------------------17--------------------------------14-12----/17---------------17--------------------|
G|-------------------------\16~~-----13b14b13-11~~--13-14--------------------------------------------------|
D|---------------------------------------------------------------------------------------------------------|
A|---------------------------------------------------------------------------------------------------------|
E|---------------------------------------------------------------------------------------------------------|


************************************

| h  Hammer-on
| p  Pull-off
| /  Slide up
| b  Bend
| ~  Vibrato
| \  Slide down

************************************

            
            
Suggest correction
Creating personal tab
Creating personal tab
You can edit any tab online and save it as your Personal.

You can edit, replace or remove any tab part or add personal notes – all changes will be seen only by you.

Personal tabs can be accessed anytime from any device, even offline.
Learn more »
Give kudos to tab author, rate the tab!
1 2 3 4 5
comments
print report bad tab
2 comments total.
0 reply
lb87ralliart 300 Feb 02, 2017 06:33 PM, edited at 11:34 pm

original link from video http://www.mediafire.com/file/dl48x5bgie33nnh/spiraltimetab.txt

0 reply
ordinary_story 45 Feb 06, 2017 10:36 AM

Don't worry I made the video too :)

guest
You may want to rate the tab now too:
select rating
Wanna post a correction for this tab? Suggest correction