Oops, an error
Loading. Please wait.

Underneath The Surface Tab

1,564 views 1 this week
no commentswrite comment
1 2 3 4 5
2 more votes to show rating
add to favorites
launch autoscroll
font size
0
reset
how to read this tab
guitar tuner
Autoscroll
slow
fast
+/-
esc
set tempo
stop
Help us to improve Ultimate-Guitar.com Take our survey!
×
Author
Difficulty
novice
-------------------------------------------------------------------------------
Underneath the Surface Intro - Scar Symmetry
-------------------------------------------------------------------------------
Tabbed by:RustedEmbrace
Email:Scream_violently@hotmail.com For Any Corrections Or Questions

Tuning:BEADGbe 7 String Standard

e|-----------------------------------------------------------------------------|
B|-----------------------------------------------------------------------------|
G|-----------------------------------------------------------------------------|
D|---9--\--8-8888---9--\--8-88888888-------------------------------------------|
A|-----------------------------------------------------------------------------|
E|---7--\--6-6666---7--\--6-66666666-------------------------------------------|
B|-----------------------------------------------------------------------------|

e|-----------------------------------------------------------------------------|
B|-----------------------------------------------------------------------------|
G|-----------------------------------------------------------------------------|
D|---9--\--8-8888---9--\--8-88888----------------------------------------------|
A|-----------------------------------------------------------------------------|
E|---7--\--6-6666---7--\--6-66666----------------------------------------------|
B|-----------------------------------------------------------------------------|

e|-----------------------------------------------------------------------------|
B|-----------------------------------------------------------------------------|
G|-----------------------------------------------------------------------------|
D|---9--\--8-8888---9--\--8-88888888-------------------------------------------|
A|-----------------------------------------------------------------------------|
E|---7--\--6-6666---7--\--6-66666666-------------------------------------------|
B|-----------------------------------------------------------------------------|

e|--------------------------------------------------------------------------------------------|
B|--------------------------------------------------------------------------------------------|
G|--------------------------------------------------------------------------------------------|
D|---13--\--1212121212----13--\--1212121212---------------------------------------------------|
A|--------------------------------------------------------------------------------------------|
E|---11--\--1010101010----11--\--1010101010---------------------------------------------------|
B|--------------------------------------------------------------------Repeat First Four Bars--|
 X2

e|-----------------------------------------------------------------------------|
B|-----------------------------------------------------------------------------|
G|-----------------------------------------------------------------------------|
D|-----------------------------------------------------------------------------|
A|-----------------------------------------------------------------------------|
E|-----------------------------------------------------------------------------|
B|---1p0-0000---1p0-000000000--------------------------------------------------| X3
            ******         *************
e|------------------------------------------------------------------------------------|
B|------------------------------------------------------------------------------------|
G|------------------------------------------------------------------------------------|
D|------------------------------------------------------------------------------------|
A|------------------------------------------------------------------------------------|
E|------------------------------------------------------------------------------------|
B|---3p0-0000---3p0-33333333-----------------------------------| Repeat These 2 Bars--| X2
            ******         ***********



| /  slide up
| \  slide down
| h  hammer-on
| p  pull-off
| ~  vibrato
| +  harmonic
| x  Mute note
===============================================================================
Suggest correction
Give kudos to tab author, rate the tab!
1 2 3 4 5
comments
print report bad tab
guest
You may want to rate the tab now too:
select rating
Wanna post a correction for this tab? Suggest correction