Oops, an error
Loading. Please wait.

Baby Dracula Bass Tab

327 views 1 this week
no commentswrite comment
1 2 3 4 5
please rate
add to favorites
launch autoscroll
font size
0
reset
guitar tuner
Tab Pro tools
  • play this tab
  • loop segment
  • change instrument
  • show fretboard
  • metronome
Autoscroll
slow
fast
+/-
esc
set tempo
stop
Contributor
Difficulty
Tuning
novice
E A D G B E
BABY DRACULA
Scarling.

Taken from the SFTRI EP Sweet Heart Dealer (2004)

Transcribed by: Damian Pamminger (TwitcheD_85@hotmail.com)

Tune down 1/2 step: Eb Ab Db Gb

Pause

Fig. 1 (2x)
| --------------------------------------------------------------------|
| --------------------------------------------------------------------|
| ----------------------------------3-3-3-3-3-3-3-3-3-2-2-2-0-0-------|
|-1-1-1-1-1-1-1-1-3-3-3-3-3-3-3-3------------------------------3-0----|

| ---------------------------------------------------------------------|
| ---------------------------------------------------------------------|
| ----------------------------------3-3-3-3-3-3-3-3-3-5-5-5-3-3-5------|
|-1-1-1-1-1-1-1-1-3-3-3-3-3-3-3-3--------------------------------0-----|

Fig. 2 (4x)
|-------------------------------------|
|-------------------------------------|
|-0---0-0-3-0-3-2---2-2-2-------------|
|--------------------------3-3-3-3----|

Pause
Fig. 1 (2x)
Fig. 2 (16x)

End
|------------------|
|------------------|
|-0----------------|
|------------------|

Pause until end
comments
We did not receive enough feedback on this tab! Please rate:
print report bad tab
1 2 3 4 5
I want to post or [tab]
guest
You may want to rate the tab now too:
select rating
Please do not post tabs as comments. Select "correction" instead!