Oops, an error
Loading. Please wait.

Alexander The Burn Victim Bass Tab

343 views 1 this week
no commentswrite comment
1 2 3 4 5
please rate
add to favorites
launch autoscroll
font size
0
reset
guitar tuner
Autoscroll
slow
fast
+/-
esc
set tempo
stop
Help us to improve Ultimate-Guitar.com Take our survey!
×
Contributor
Difficulty
TwitcheD_85 1,317
novice
ALEXANDER THE BURN VICTIM
Scarling.

Taken from the SFTRI EP Sweet Heart Dealer (2004)

Transcribed by: Damian Pamminger (TwitcheD_85@hotmail.com)

Tune down 1/2 step: Eb Ab Db Gb

Pause

Fig. 1 (12x)
| ---------------------------------------------------------------------------|
| ---------------------------------------------------------------------------|
|-7-7-7-7-7-7-7-7-7-7-7-7-7-7-7-7/-10-10-10-10-10-10-10-10-10-10-10-10\------|
| ---------------------------------------------------------------------------|

|------------|
|------------|
|-5-5-5-5----|
|------------|

Fig. 2 (4x)
|----------------------------------------------------------------------|
|----------------------------------------------------------------------|
|-3-3-3-3-3-3-3-3-3-3-3-2-2-2------------------------------------------|
| ------------------------------3-3-0-0-0-0-0-0-0-2-2-2-2-3-3-3-5-5----|

Fig. 1 (6x)
Fig. 2 (4x)

Fig. 3 (1x)
| -----------------------------------------------------------------------------|
| -----------------------------------------------------------------------------|
|-7-7-7-7-7-7-7-7-7-7-7-7-7-7-7------------------------------------------------|
| --------------------------------0-3-3-3-3-3-3-3-3-3-3-3-3-2-2-2-2-0-0-0-0----|

|------------------------------------------------------------------------------|
|------------------------------------------------------------------------------|
|------------------------------------------------------------7-7-7-7-7-7-7-7---|
|-0-0-0-0-0-0-0-0-0-0-0-0-3-3-3-3-3-3-3-3-3-3-3-3-2-2-2-2/---------------------|

| ----------------------------------------------------------------------------|
| ----------------------------------------------------------------------------|
|-7-7-7-7-7-7-7---------------------------------------------------------------|
|---------------0-3-3-3-3-3-3-3-3-3-3-3-3-2-2-2-2-0-0-0-0-0-0-0-0-0-0-0-0-----|

| ------------------------------------------ |-----------------------------------|
| ------------------------------------------ |-----------------------------------|
| ------------------------------------------ |-----------------------------------|
|-0-0-0-0-3-3-3-3-3-3-3-3-3-3-3-3-2-2-2-2-|-0-0-0-0-0-0-0-0-0-0-0-0-0-0-0-0------|

|------------------------------------ |----------- |-------------------------------|
|------------------------------------ |---REPEAT-- |-------------------------------|
|------------------------------------ |-three-more-|-------------------------------|
|-3-3-3-3-3-3-3-3-3-3-3-3-2-2-2-2-2-|---times----|-0-0-0-0-0-0-0-0-0-0-0-0-0-0-----|

| ---------------------------------------------------------------------------------|
| ---------------------------------------------------------------------------------|
| ---------------------------------------7-7-7-7-7-7-7-7-7-7-7-7-7-7-7-7/-10-10----|
|-0-0-3-3-3-3-3-3-3-3-3-3-3-3-2-2-2-2/---------------------------------------------|

|--------------------------------------------|
|--------------------------------------------|
|-10-10-10-10-10-10-10-10-10-10\-5-5-5-5-----|
|--------------------------------------------|

Fig. 2 (8x)

End
|------------------|
|------------------|
|-3----------------|
|------------------|

Pause until end
comments
We did not receive enough feedback on this tab! Please rate:
print report bad tab
1 2 3 4 5
I want to post or [tab]
guest
You may want to rate the tab now too:
select rating
Please do not post tabs as comments. Select "correction" instead!