Oops, an error
Loading. Please wait.
We have an official Chemicals tab made by UG professional guitarists. Check out the tab »
×
3,845 views 1 this week
2 commentsread comments
1 2 3 4 5
x 3
add to favorites
×
Save as Personal and add changes to this tab that will be seen only by you. Learn more ›
×
You can save this tab as Personal to edit and correct it or add notes. All changes will be seen only by you. Learn more »
launch autoscroll
font size
0
reset
guitar tuner
backing track
0:00
0:00
edit
Autoscroll
slow
fast
+/-
esc
set tempo
stop
Scars On Broadway-Chemicals Bass Tab             
By nudude
--------------------------------------------------------------------------------------------
This Tab Was Made By Going Over The Concert Video
.It Turned Out Perfect.I Would Say
Its 99.99% Correct.Please Rate And Leave Comments
So I Can Know How You Guys Think It Turned Out.
----------------------------------------------------------------------------------------------
 The Q And S etc Are The Note Type (8th,16th,32th,etc) See The Bottom Of The
Tab For The Legend.For The Letters Closest To The Tab Look In The Duration Legend.
And For The Ones Above Those Look In The Tabulature Legend Although I Will Fill You In On
What You Need To Know Through Out The Tab.

The Tuning Is Bass Drop C# (C#G#C#F#)
----------------------------------------------------------------------------

There Isnt Much Bass In This Song But Heres What There Is
NO BASS IN INTRO OR VERSE
 

CHORUS Play Twice
    S S S S S S S S S S S S S S S S  
|-----------------------------------|
|*----------------------------------|
|*----------------------------------|
|---7-7-7-7-7-7-7-7-7-7-7-7-7-7-7-7-|


  S S S S S S S S S S S S S S S S  
----------------------------------|
----------------------------------|
----------------------------------|
--3-3-3-3-3-3-3-3-3-3-3-3-3-3-3-3-|


  S S S S S S S S S S S S S S S S  
----------------------------------|
----------------------------------|
----------------------------------|
--2-2-2-2-2-2-2-2-2-2-2-2-2-2-2-2-|


  S S S S S S S S S S S S S S S S                    
-----------------------------------||-------|-------|
----------------------------------*||-------|-------|
----------------------------------*||-------|-------|
--9-9-9-9-9-9-9-9-9-9-9-9-9-9-9-9--||-------|-------|

NO BASS IN VERSE

Second CHORUS Play Twice
    S S S S S S S S S S S S S S S S  
|-----------------------------------|
|*----------------------------------|
|*----------------------------------|
|---7-7-7-7-7-7-7-7-7-7-7-7-7-7-7-7-|


  S S S S S S S S S S S S S S S S  
----------------------------------|
----------------------------------|
----------------------------------|
--3-3-3-3-3-3-3-3-3-3-3-3-3-3-3-3-|


  S S S S S S S S S S S S S S S S  
----------------------------------|
----------------------------------|
----------------------------------|
--2-2-2-2-2-2-2-2-2-2-2-2-2-2-2-2-|


  S S S S S S S S S S S S S S S S                    
-----------------------------------||-------|-------|
----------------------------------*||-------|-------|
----------------------------------*||-------|-------|
--9-9-9-9-9-9-9-9-9-9-9-9-9-9-9-9--||-------|-------|

No Bass In Bridge

Chorus

    S S S S S S S S S S S S S S S S  
|-----------------------------------|
|*----------------------------------|
|*----------------------------------|
|---7-7-7-7-7-7-7-7-7-7-7-7-7-7-7-7-|


  S S S S S S S S S S S S S S S S  
----------------------------------|
----------------------------------|
----------------------------------|
--3-3-3-3-3-3-3-3-3-3-3-3-3-3-3-3-|


  S S S S S S S S S S S S S S S S  
----------------------------------|
----------------------------------|
----------------------------------|
--2-2-2-2-2-2-2-2-2-2-2-2-2-2-2-2-|


  S S S S S S S S S S S S S S S S    
-----------------------------------||
----------------------------------*||
----------------------------------*||
--9-9-9-9-9-9-9-9-9-9-9-9-9-9-9-9--||

Outro
  S S S S S S S S S S S S S S S S  
----------------------------------|
----------------------------------|
--7-7-7-7-7-7-7-7-7-7-7-7-7-7-7-7-|
----------------------------------|


  S S S S S S S S S S S S S S S S  
----------------------------------|
----------------------------------|
--9-9-9-9-9-9-9-9-9-9-9-9-9-9-9-9-|
----------------------------------|


  S S S S S S S S S S S S S S S S  
----------------------------------|
----------------------------------|
--7-7-7-7-7-7-7-7-7-7-7-7-7-7-7-7-|
----------------------------------|


  S S S S S S S S S S S S S S S S   
----------------------------------||
----------------------------------||
--9-9-9-9-9-9-9-9-9-9-9-9-9-9-9-9-||
----------------------------------||




Duration Legend
---------------
W - whole
H - half
Q - quarter
E - 8th
S - 16th
T - 32nd
X - 64th
. - note dotted
|-n-|  - n-tuplets


Tablature Legend
----------------
L - tied note
x - dead note
g - grace note
(n) - ghost note
> - accentuded note
NH - natural harmonic
AH - artificial harmonic
TH - tapped harmonic
SH - semi harmonic
PH - pitch harmonic
h - hammer on
p - pull off
b - bend
br - bendRelease
pb - preBend
pbr - preBendRelease
brb - bendReleaseBend
\n/ - tremolo bar dip
\n - tremolo bar dive
-/n - tremolo bar Release up
/n\ - tremolo bar inverted dip
/n - tremolo bar return
-\n - tremolo bar Release down
S - shift slide
s - legato slide
/ -  slide into from below or out of upwards
\ -  slide into from above or out of downwards
~ - vibrato
W - wide vibrato
tr - trill
TP - tremolo picking
T - tapping
S - slap
P - pop
< - fade in
^ - brush up
v - brush down












            
            
Suggest correction
Creating personal tab
Creating personal tab
You can edit any tab online and save it as your Personal.

You can edit, replace or remove any tab part or add personal notes – all changes will be seen only by you.

Personal tabs can be accessed anytime from any device, even offline.
Learn more »
Give kudos to tab author, rate the tab!
1 2 3 4 5
comments
print report bad tab
2 comments total.
0 reply
thunderhawk 535 Oct 11, 2008 06:22 PM

wtf? horrible cover. that's just so bad so not right and doe snot make sense

0 reply
St. Fixxxer 182 May 17, 2010 09:18 AM

I know, that's why I posted a much better version.

guest
You may want to rate the tab now too:
select rating
Wanna post a correction for this tab? Suggest correction