Oops, an error
Loading. Please wait.

Whore Street Bass Tab

version 1
version 1

Whole song

Interactive

1,421 views 3 this week
1 commentread comment
1 2 3 4 5
please rate
add to favorites
launch autoscroll
font size
0
reset
guitar tuner
Tab Pro tools
  • play this tab
  • loop segment
  • change instrument
  • show fretboard
  • metronome
×
Best way to learn
"Whore Street"
Autoscroll
slow
fast
+/-
esc
set tempo
stop
Contributor
Difficulty
Tuning
novice
C# G# C# F# A# D#
Scars On Broadway-Whore Street Tab                 
By nudude
----------------------------------------------------------------------------------
This Tab Was Made By Going Over The Concert Video
.It Turned Out Perfect.I Would Say
Its 99.99% Correct.Please Rate And Leave Comments
So I Can Know How You Guys Think It Turned Out.
----------------------------------------------------------------------------------
 The Q And S Are The Note Type (8th,16th,32th,etc) See The Bottom Of The
Tab For The Legend.For The Letters Closest To The Tab Look In The Duration Legend.
And For The Ones Above Those Look In The Tabulature Legend Although I Will Fill You In On
What You Need To Know Through Out The Tab.

The Tuning Is Bass Dropped C#(C#G#C#F#)
----------------------------------------------------------------------------------




Intro Part 1
Listen To The Song For Timing On These 0s

                  W                       Play Twice              
|-------------------|-------------------|
|-------------------|-------------------|
|-------------------|-------------------|
|--0----------------|-------------------|


                                                 
Intro Part 2

          H        Q    Q       W  Play The Next Two Lines Twice               
|---------------------|-------------------|
|---------------------|-------------------|
|---------------------|-------------------|
|--0--------1----8----|--7----------------|


  H        Q    Q       W                 
---------------------|-------------------|
---------------------|-------------------|
---------------------|-------------------|
--8--------5----0----|--7----------------|

Verse 
Play The 0 As The Clean Guitar Kicks In

  W                                               Play Once  
-------------------|
-------------------|
-------------------|
--0----------------|

Chorus
            W                   W         Play The Next 2 Lines 5 Times        
|--------------------|-------------------|
|*-------------------|-------------------|
|*-------------------|-------------------|
|---0----------------|--3----------------|


  W                   H        Q    E  E   4x
-------------------|-----------------------||
-------------------|----------------------*||
-------------------|----------------------*||
--7----------------|--8--------L----5--3---||


Outro
Play The 0 As The Clean Guitar Kicks In


  W                                                  
-------------------|
-------------------|
-------------------|
--0----------------|




Duration Legend
---------------
W - whole
H - half
Q - quarter
E - 8th
S - 16th
T - 32nd
X - 64th
. - note dotted
|-n-|  - n-tuplets


Tablature Legend
----------------
L - tied note
x - dead note
g - grace note
(n) - ghost note
> - accentuded note
NH - natural harmonic
AH - artificial harmonic
TH - tapped harmonic
SH - semi harmonic
PH - pitch harmonic
h - hammer on
p - pull off
b - bend
br - bendRelease
pb - preBend
pbr - preBendRelease
brb - bendReleaseBend
\n/ - tremolo bar dip
\n - tremolo bar dive
-/n - tremolo bar Release up
/n\ - tremolo bar inverted dip
/n - tremolo bar return
-\n - tremolo bar Release down
S - shift slide
s - legato slide
/ -  slide into from below or out of upwards
\ -  slide into from above or out of downwards
~ - vibrato
W - wide vibrato
tr - trill
TP - tremolo picking
T - tapping
S - slap
P - pop
< - fade in
^ - brush up
v - brush down











comments
We did not receive enough feedback on this tab! Please rate:
print report bad tab
1 2 3 4 5
1 comment total.
0 reply
ImagineTheThorn wrote on April 2 2009, 03:50 pm

The song is called Whoring Streets.

I want to post or [tab]
guest
You may want to rate the tab now too:
select rating
Please do not post tabs as comments. Select "correction" instead!