Oops, an error
Loading. Please wait.

Whore Street Tab

version 1
version 1

Intro

Interactive

2,305 views 1 this week
no commentswrite comment
1 2 3 4 5
2 more votes to show rating
add to favorites
launch autoscroll
font size
0
reset
how to read this tab
guitar tuner
Autoscroll
slow
fast
+/-
esc
set tempo
stop
Help us to improve Ultimate-Guitar.com Take our survey!
×
Author
Here's the intro
drop C# tuning
this is actually called whoring street, but because the song name was known as
whore street, i submitted it as that.

------------------------------------|
------------------------------------|
------------------------------------|
-----------10--7--------------------|x2
---7--8--------------7--8-----10--7-|
-0-------0--------0--------0--------|

------------------------------------|
------------------------------------|
------------------------------------|
-0---------10--7--------------------|x2
-0-7--8--------------7--8-----10--7-|
-0-------0--------0--------0--------|
Suggest correction
Give kudos to tab author, rate the tab!
1 2 3 4 5
comments
print report bad tab
guest
You may want to rate the tab now too:
select rating
Wanna post a correction for this tab? Suggest correction