Oops, an error
Loading. Please wait.

Whore Street Tab

version 1
version 1

Intro

Interactive

12,021 views 12 this week
9 commentsread comments
1 2 3 4 5
accurate
x 6
add to favorites
launch autoscroll
font size
0
reset
how to read this tab
guitar tuner
Tab Pro tools
  • play this tab
  • loop segment
  • change instrument
  • show fretboard
  • metronome
Autoscroll
slow
fast
+/-
esc
set tempo
stop
Contributor
DROP C# TUNING!
Kroq intro (internet leak), now called 'scars on broadway'
with whoring streets after

clean
------------------------------------|
------------------------------------|
------------------------------------|
-----------10--7--------------------|x2
---7--8--------------7--8-----10--7-|
-0-------0--------0--------0--------|

distortion for first note only
------------------------------------|
------------------------------------|
------------------------------------|
-0---------10--7--------------------|x2
-0-7--8--------------7--8-----10--7-|
-0-------0--------0--------0--------|

distortion
---------------------------------------|
---------------------------------------|
---------10---9-------10---7-----------|
-7---8---10---9-------10---7---7---0---|x2
-7---8---8----7-------8----5---7---0---|
-7---8-------------------------7---0---|

distortion
------------------------------------|
------------------------------------|
------------------------------------|
-----------10--7--------------------|x2
---7--8--------------7--8-----10--7-|
-0-------0--------0--------0--------|

distortion
---------------------------------------|
---------------------------------------|
---------10---9-------10---7-----------|
-7---8---10---9-------10---7---7---0---|x2
-7---8---8----7-------8----5---7---0---|
-7---8-------------------------7---0---|

distortion
------------------------------------|
------------------------------------|
------------------------------------|
-----------10--7--------------------|x2
---7--8--------------7--8-----10--7-|
-0-------0--------0--------0--------|

intro
------------------------------------------------|
------------------------------------------------|
------------------------------------------------|
---0---0------3----3-----7------7------8---8----|x1
--0-0---0-0----3----3-3----7-----7-7----8---8-8-|
-0----0--0--3-----3--3--7-----7---7--8----8--8--|

------------------------------------------------|
------------------------------------------------|
------------------------------------------------|
---0---0------3----3------7-----7------8---8----|x4
----0---0-0----3----3-3----7-----7-7----8---8-8-|
-0----0--0--3-----3--3--7-----7---7--8----8--8--|

---------------------------------------------------|
---------------------------------------------------|
-7-7-7-9-9-1010--5-5-5-5-5---9-9-9-9-9--1010101010-|
-x-x-x-x-x-x-x-3-x-x-x-x-x-7-x-x-x-x-x-8-x-x-x-x-x-|x5 and x2 during solo
-5-5-5-7-7-8-8-3-3-3-3-3-3-7-7-7-7-7-7-8-8-8-8-8-8-|
---------------3-----------7-----------8-----------|

solo
------------------------------------------|
--13---11--10---11--10-8-10---11--10-8-10-|
------------------------------------------|
------------------------------------------|x2
------------------------------------------|
------------------------------------------|

outro
------------------------------------------------|
------------------------------------------------|
------------------------------------------------|
---0---0------3----3------7-----7------8---8----|x1
--0-0---0-0----3----3-3----7-----7-7----8---8-8-|
-0----0--0--3-----3--3--7-----7---7--8----8--8--|

fully updated! enjoy
comments
print report bad tab
9 comments total. Showing first comments.
0 reply
Robert734 wrote on June 24 2008, 06:19 pm

it looks pretty good, like u said a little messy but good. and by chance do you know what effects he uses when he plays??

0 reply
horandago wrote on June 25 2008, 04:58 pm

ive been looking around for it, no real help from anyone yet tho :/
i've almost got the solo, so it shoud be complete soon

0 reply
Chasec718 wrote on July 30 2008, 01:16 pm

this isnt actually woring streets. this is actually a song called scars on broadway, but they used it for the live version a whoring streets....good tab though

I want to post or [tab]
guest
You may want to rate the tab now too:
select rating
Please do not post tabs as comments. Select "correction" instead!