Oops, an error
Loading. Please wait.

Whore Street Tab

version 2
version 2

Interactive

1,228 views 1 this week
1 commentread comment
1 2 3 4 5
please rate
add to favorites
launch autoscroll
font size
0
reset
how to read this tab
guitar tuner
Autoscroll
slow
fast
+/-
esc
set tempo
stop
Help us to improve Ultimate-Guitar.com Take our survey!
×
Difficulty
Tuning
novice
D A D G B E
Whore Street tab...This is my first tab...For questions, or REQUESTS, please
email XxStrikerFlarexX@aol.com

INTRO:

------------------------------------------------------------------------|
------------------------------------------------------------------------|
------------------------------------------------------------------------|
--0---0-----3-----6-----7--7--------------------------------------------|
---0---0-0---3-3---6-6---7------(X4 or 5 times)-------------------------|
-0---0--0--3--3--6--6--7--7---------------------------------------------|

Everything else:

------------------------------------------------------------------------|
-------3-3-3---5-5-5----------------------------------------------------|
-------2-2-2---4-4-4----------------------------------------------------|
-0-0-----------------3-3------6-6------7-7------------------------------|X5
-0-0-----------------3-3-(x3)-6-6-(x3)-7-7-(x3)-------------------------|
-0-0-----------------3-3------6-6------7-7------------------------------|


Solo time:I AM NOT SURE IF THE SOLO IS CORRECT
Guitar 1:PT.1
------------------------------------------------------------------------|
----9-9-9-9-9-7-9-9-9-9-10-10-10-9-7-10-10-10-10-10-10-10---------------|
------------------------------------------------------------------------|
------------------------------------------------------------------------|
------------------------------------------------------------------------|
------------------------------------------------------------------------|

The faster part is I believe strumming fast from 17 down to 12,Then playing 9 repeatedly 
bending til end of solo.

Guitar 2:
------------------------------------------------------------------------|
------------------------------------------------------------------------|
------------------------------------------------------------------------|
-0---3----6-7-----------------------------------------------------------|
-0---3----6-7--(x2)-----------------------------------------------------|
-0---3----6-7-----------------------------------------------------------|

then the intro again once and whala. Comments, questions email XxStrikerflarexX@aol.com
Suggest correction
What's this?
You can suggest a correction to this tab. Community and Mods will review your correction and vote to approve or reject it.
comments
We did not receive enough feedback on this tab! Please rate:
print report bad tab
1 2 3 4 5
1 comment total.
+1 reply
Robert734 18 wrote on June 25 2008, 04:32 am

dude this is far far off lol. the intro is not that thats a different part lol. anyway good try but this is all wrong lol

guest
You may want to rate the tab now too:
select rating
Please do not post tabs as comments. Select "correction" instead!