Oops, an error
Loading. Please wait.

Whore Street Tab

version 4
version 4

Interactive

639 views 1 this week
no commentswrite comment
1 2 3 4 5
please rate
add to favorites
launch autoscroll
font size
0
reset
how to read this tab
guitar tuner
Autoscroll
slow
fast
+/-
esc
set tempo
stop
Help us to improve Ultimate-Guitar.com Take our survey!
×
Author
Difficulty
Tuning
intermediate
C# G# C# F# A# D#
-------------------------------------------------------------------------------
                             Whore Street (Live at Kroq) – Scars on Broadway
-------------------------------------------------------------------------------
Tabbed by: Triviumrock
Email me with any corrections please
avenged_trivium@hotmail.co.uk

Tuning: Drop C#

Start with a bit of delay on a cleanish channel, until the power chords, play the power 
and only them with distort, then go back to the clean


Intro

e|---------------------------------------------------------------------------|
B|--------------1----------------------------------1-------------------------|
G|----------------2---------------0-----------------2--------------0---------|
D|----2-3----------------2-3--------2---0--2-3------------2-3--------2-------|
A|--------------------------------------0------------------------------------|
E|-0---------0--------0--------0--------0-------0-------0-------0------------|

e|---------------------------------------------------------------------------|
B|-------------1-------------------------------------------------------------|
G|---------------2-------------0----------10-9---10-7-------Chug-all-it------|
D|-3---2-3-------------2-3-------2----7-8-10-9---10-7-7-0---appropriately----|
A|-3----------------------------------7-8-8--7----8-5-7-0---and-repeat-once--|
E|-3--------0-------0-------0---------7-8-------------7-0--------------------|

e|---------------------------------------------------------------------------|
B|-----------1---------------------------------------------------------------|
G|------------2------------0-------------------------------------------------|
D|-0--2-3--0----0--2-3--0----2--Repeat-twice---------------------------------|
A|-0-------0----0-------0-------then-go-back---------------------------------|
E|-0-------0----0-------0-------chugging-------------------------------------|


Verse/ Chorus

D#||-------------------------------------------------------------------------|
A#||-------------------------------------------------------------------------|
F#||-------------------------------------------------------------------------|
C#||---0------0------3------3------7------7------8------8----repeat-until----|
G#||-----0------0------3------3------7------7------8------8--interlude-------|
C#||-0------0------3------3------7------7------8------8----------------------|

e|---------------------------------------------------------------------------|
B|-----5-5-6-6-------6-6-----------------------------------------------------|
G|-----x-x-x-x-------5-5-----------------------------------------------------|
D|-0-0-2-2-3-3--3--3-3-3-7-7-7-7-8-8-8-8------Keep-repeating-----------------|
A|-0-0----------3--3-3-3-7-7-7-7-8-8-8-8------and-it-backs-------------------|
E|-0-0----------3--3-3-3-7-7-7-7-8-8-8-8------the-solo-----------------------|

Solo

e|---------------------------------------------------------------------------|
B|-13-13—13--13/11-11/10-10-10-10-10-11-11-11-8-8-11-11-13--13-13-15-15-15-15|
G|---------------------------------------------------------------------------|
D|---------------------------------------------------------------------------|
A|---------------------------------------------------------------------------|
E|---------------------------------------------------------------------------|

e|---------------------------------------------------------------------------|
B|-15-15-15-15-13-11-10-11-10-10b-(11)-10------------------------------------|
G|---------------------------------------------------------------------------|
D|---------------------------------------------------------------------------|
A|---------------------------------------------------------------------------|
Suggest correction
Give kudos to tab author, rate the tab!
1 2 3 4 5
comments
print report bad tab
guest
You may want to rate the tab now too:
select rating
Please do not post tabs as comments. Select "correction" instead!