Oops, an error
Loading. Please wait.

Whore Street Tab

version 6
version 6

Interactive

226 views 1 this week
no commentswrite comment
1 2 3 4 5
3 more votes to show rating
add to favorites
launch autoscroll
font size
0
reset
how to read this tab
guitar tuner
Autoscroll
slow
fast
+/-
esc
set tempo
stop
Help us to improve Ultimate-Guitar.com Take our survey!
×
Author
Scars On Broadway - Whoring Streets

Tabbed by: padrot_pepo@hotmail.com
Tuning: Drop C#

Intro:
x1
D#||-----------------------------------------------------------------------------------|
A#||-----------------------------------------------------------------------------------|
F#||-----------------------------------------------------------------------------------|
C#||-----0--------0-----------3--------3----------7-------7-----------8-------8--------|
G#||---0----0-------0---0--------3-------3-----------7------7---7--------8------8---8--|
C#||-0---------0------0----3--------3------3-/-7--------7-----7----8--------8-----8----|

x4
D#||-----------------------------------------------------------------------------------|
A#||-----------------------------------------------------------------------------------|
F#||-----------------------------------------------------------------------------------|
C#||-----0--------0-----------3--------3----------7-------7-----------8-------8--------|
G#||--------0-------0---0--------3-------3-----------7------7---7--------8------8---8--|
C#||-0---------0------0----3--------3------3-/-7--------7-----7----8--------8-----8----|

Chorus:
x6
D#||---------------------------------------------------------------------------|
A#||---------------------------------------------------------------------------|
F#||--7--7--7-7--9--10-5--5--5-5-5--5-5--9--9--9-9-9--9-9--10-10-101010-101010-|
C#||--x- x--x-x--x--x--3--3--3-3-3--3-3--7--7--7-7-7--7-7--8--8--8-8-8--8-8-8--|
G#||--5--5--5-5--7--8--3--3--3-3-3--3-3--7--7--7-7-7--7-7--8--8--8-8-8--8-8-8--|
C#||-------------------3--3--3-3-3--3-3--7--7--7-7-7--7-7--8--8--8-8-8--8-8-8--|

Solo:
x2
D#||---------------------------------------------------------------------------------------|
A#||-13----11--10----11--10-8-10--11--10-8-10----13----11--10----11--10-8-10--11--10-8-10--|
F#||---------------------------------------------------------------------------------------|
C#||---------------------------------------------------------------------------------------|
G#||---------------------------------------------------------------------------------------|
C#||---------------------------------------------------------------------------------------|

Outro:
x1
D#||-----------------------------------------------------------------------------------|
A#||-----------------------------------------------------------------------------------|
F#||-----------------------------------------------------------------------------------|
C#||-----0--------0-----------3--------3----------7-------7-----------8-------8--------|
G#||--------0-------0---0--------3-------3-----------7------7---7--------8------8---8--|
C#||-0---------0------0----3--------3------3-/-7--------7-----7----8--------8-----8----|

D#||--------|
A#||--------|
F#||--------|
C#||-----0--|
G#||---0----|
C#||-0------| Let Ring

Enjoy :)
Suggest correction
Give kudos to tab author, rate the tab!
1 2 3 4 5
comments
print report bad tab
guest
You may want to rate the tab now too:
select rating
Wanna post a correction for this tab? Suggest correction