Oops, an error
Loading. Please wait.

Whoring Streets Tab

version 1
version 1

Live

Whole song

Interactive

1,702 views 1 this week
no commentswrite comment
1 2 3 4 5
please rate
add to favorites
launch autoscroll
font size
0
reset
how to read this tab
guitar tuner
Tab Pro tools
  • play this tab
  • loop segment
  • change instrument
  • show fretboard
  • metronome
×
Best way to learn
"Whoring Streets"
Autoscroll
slow
fast
+/-
esc
set tempo
stop
Contributor
-------------------------------------------------------------------------------
              Whoring Streets (Live at KROQ) – Scars on Broadway
-------------------------------------------------------------------------------
Tabbed by: UponTheshores
Email    : UponTheShores@hotmail.co.uk

Tuning: Drop C#

This includes both the songs "whoring streets" and "scars on broadway"


Intro:

  (Guitar one)
|---------------------------------------------------------------------------|
|--------------1----------------------------------1-------------------------|
|----------------2---------------0-----------------2--------------0---------|
|----2-3----------------2-3--------2---0--2-3------------2-3--------2-------|
|--------------------------------------0------------------------------------|
|-0---------0--------0--------0--------0-------0-------0-------0------------|

|-----------------------------------|
|-------------1---------------------|
|---------------2-------------0-----|
|-3---2-3-------------2-3-------2---|
|-3---------------------------------|
|-3--------0-------0-------0--------|

|-------------------------------------------------------------------------------------|
|-------------------------------------------------------------------------------------|
|---------------10101010-9999999999999999-1010101010101010-7777-----------------------|
|-77777777-8888-10101010-9999999999999999-1010101010101010-7777-7777-0000000000000000-|
|-77777777-8888-8-8-8-8--7777777777777777-8-8-8-8-8-8-8-8--5555-7777-0000000000000000-|
|-77777777-8888-------------------------------------------------7777-0000000000000000-|

|-------------------------------|
|-----------1-------------------|
|------------2------------0-----|
|-0--2-3--0----0--2-3--0----2---|
|-0-------0----0-------0--------|
|-0-------0----0-------0--------|

|-------------------------------------------------------------------------------------|
|-------------------------------------------------------------------------------------|
|---------------10101010-9999999999999999-1010101010101010-7777-----------------------|
|-77777777-8888-10101010-9999999999999999-1010101010101010-7777-7777-0000000000000000-|
|-77777777-8888-8-8-8-8--7777777777777777-8-8-8-8-8-8-8-8--5555-7777-0000000000000000-|
|-77777777-8888-------------------------------------------------7777-0000000000000000-|

|-------------------------------|
|-----------1-------------------|
|------------2------------0-----|
|-0--2-3--0----0--2-3--0----2---|
|-0-------0----0-------0--------|
|-0-------0----0-------0--------|


Verse Pt.1:

 (Both Guitars)
|---------------------------------------------------------|
|---------------------------------------------------------|
|---------------------------------------------------------|
|---0------0------3------3------7------7------8------8----|
|-----0------0------3------3------7------7------8------8--|
|-0------0------3------3------7------7------8------8------|


Verse Pt.2:

 (Guitar one)
|----------------------------------------|
|-----5-5-6-6-------6-6------------------|
|-----x-x-x-x-------5-5------------------|
|-0-0-2-2-3-3--3--3-3-3-7-7-7-7-8-8-8-8--|
|-0-0----------3--3-3-3-7-7-7-7-8-8-8-8--|
|-0-0----------3--3-3-3-7-7-7-7-8-8-8-8--|

 (Guitar two)
|----------------------------------------|
|----------------------------------------|
|----------------------------------------|
|-0-0-0-0-0-0--3--3-3-3-7-7-7-7-8-8-8-8--|
|-0-0-0-0-0-0--3--3-3-3-7-7-7-7-8-8-8-8--|
|-0-0-0-0-0-0--3--3-3-3-7-7-7-7-8-8-8-8--|

Solo:

 (Guitar one)
|---------------------------------------------------------------------------|
|-13-13—13--13/11-11/10-10-10-10-10-11-11-11-8-8-11-11-13-13-13-15-15-15-15-|
|---------------------------------------------------------------------------|
|---------------------------------------------------------------------------|
|---------------------------------------------------------------------------|
|---------------------------------------------------------------------------|

|-----------------------------------------|
|-15-15-15-15-13-11-10-11-10-10b-(11)-10--|
|-----------------------------------------|
|-----------------------------------------|
|-----------------------------------------|
|-----------------------------------------|

 (Guitar two)
|----------------------------------------|
|----------------------------------------|
|----------------------------------------|
|-0-0-0-0-0-0--3--3-3-3-7-7-7-7-8-8-8-8--|
|-0-0-0-0-0-0--3--3-3-3-7-7-7-7-8-8-8-8--|
|-0-0-0-0-0-0--3--3-3-3-7-7-7-7-8-8-8-8--|


Ending:

 (Guitar one)
|---------------------------------------------------------------------------|
|---------------------------------------------------------------------------|
|---------------------------------------------------------------------------|
|---0------0-----0----3------3-----3----7------7-----7------8------8-----0--|
|-----0------0----------3------3----------7------7-----7------8------8---0--|
|-0------0-----0----3------3-----3----7------7-----7------8------8-----8-0--|


| /  slide up
| \  slide down
| h  hammer-on
| p  pull-off
| ~  vibrato
| +  harmonic
| x  Mute note
===============================================================================
comments
We did not receive enough feedback on this tab! Please rate:
print report bad tab
1 2 3 4 5
I want to post or [tab]
guest
You may want to rate the tab now too:
select rating
Please do not post tabs as comments. Select "correction" instead!