Oops, an error
Loading. Please wait.

World Long Gone Bass Tab

version 1
version 1

Whole song

Interactive

6,753 views 6 this week
2 commentsread comments
1 2 3 4 5
excellent!
x 4
add to favorites
launch autoscroll
font size
0
reset
guitar tuner
Autoscroll
slow
fast
+/-
esc
set tempo
stop
Help us to improve Ultimate-Guitar.com Take our survey!
×
Author
Tuning is
Db
Ab
Db
Gb

Intro ( Main riff)
|--------------------|
|--------------------|
|-0-5-0--------------|
|-------8-5-7-3-5-2--|   This is the main riff in two parts for ease of learning it

|------------------|
|------------------|
|---------------0--|
|-3-0-2-3-5-3-2----|        x 4


Verse

|--------------------|
|--------------------|
|--------------------| x 4     thats 7 notes
|--0-0-0-0-0-0-0-----|


|--------------------|
|--------------------|
|--3-3-3-3-3-3-3-----| x 4     repeat the whole verse x 2
|--------------------|


Pre Chorus Build Up

|--------------------|
|--------------------|
|--5-5-5-5-5-5-5-5---| x 2
|--------------------|


|--------------------|
|--------------------|
|--3-3-3-3-3-3-3-3---| x 2
|--------------------|

|--------------------|
|--------------------|
|--5-5-5-5-5-5-5-5---| x 2
|--------------------|


|--------------------|
|--------------------|
|--3-3-3-3-3-3-3-3---| x 2
|--------------------|


Chorus

|--------------------------------------------------------|
|--------------------------------------------------------|
|--1-1-1--1-1-1----------------3-3-3--3-3-3--1-1-1-0-0-0-|   x 2
|----------------0-0-0--0-0-0----------------------------|

Main Riff
|--------------------|
|--------------------|
|-0-5-0--------------|
|-------8-5-7-3-5-2--|

|--------------------|
|--------------------|
|---------------0----|     x 4
|-3-0-2-3-5-3-2------|


2nd Verse

|--------------------|
|--------------------|
|--------------------| x 4     thats 7 notes
|--0-0-0-0-0-0-0-----|


|--------------------|
|--------------------|
|--3-3-3-3-3-3-3-----| x 4     repeat the whole verse x 2
|--------------------|


2nd Pre Chorus Build Up

|--------------------|
|--------------------|
|--5-5-5-5-5-5-5-5---| x 2
|--------------------|


|--------------------|
|--------------------|
|--3-3-3-3-3-3-3-3---| x 2
|--------------------|

|--------------------|
|--------------------|
|--5-5-5-5-5-5-5-5---| x 2
|--------------------|


|--------------------|
|--------------------|
|--3-3-3-3-3-3-3-3---| x 2
|--------------------|


2nd Chorus (slightly different)

|-----------------------------------------|-------------------------------------------------------|
|-----------------------------------------|-------------------------------------------------------|
|1-1-1--1-1-1----------------3-3-3--3-3-3-|-1-1-1--1-1-1----------------3-3-3--3-3-3--1-1-1--0-0-0|
|--------------0-0-0--0-0-0---------------|---------------0-0-0--0-0-0----------------------------|


Ending riff
|--------------------|
|--------------------|
|-0-5-0--------------|
|-------8-5-7-3-5-2--|

|--------------------|
|--------------------|
|---------------0----|     x 3
|-3-0-2-3-5-3-2------|

Then the twiddly part

|---|-----------------|--------------------|--------------------|-7----7-9-10-9-7---|
|---|-----------------|-----------7------7-|-8----7-8-10-7-8-10-|---10------------10-|
|-0-|-5-0-5-7-8-5-7-8-|-10-7-8-10---8-10---|---10---------------|--------------------|
|--|-----------------|--------------------|--------------------|--------------------|


3rd Pre Chorus Build Up

|--------------------|
|--------------------|
|--5-5-5-5-5-5-5-5---| x 2
|--------------------|


|--------------------|
|--------------------|
|--3-3-3-3-3-3-3-3---| x 2
|--------------------|

|--------------------|
|--------------------|
|--5-5-5-5-5-5-5-5---| x 2
|--------------------|


|--------------------|
|--------------------|
|--3-3-3-3-3-3-3-3---| x 2
|--------------------|

3rd Chorus

|-----------------------------------------|-------------------------------------------------------|
|-----------------------------------------|-------------------------------------------------------|
|1-1-1--1-1-1----------------3-3-3--3-3-3-|-1-1-1--1-1-1----------------3-3-3--3-3-3--1-1-1--0-0-0|
|--------------0-0-0--0-0-0---------------|---------------0-0-0--0-0-0----------------------------|


Ending riff
|--------------------|
|--------------------|
|-0-5-0--------------|
|-------8-5-7-3-5-2--|

|--------------------|
|--------------------|
|---------------0----|     x 3
|-3-0-2-3-5-3-2------|

Then the twiddly part
                                                                                       End
|---|-----------------|--------------------|--------------------|-7----7-9-10-9-7----|----|
|---|-----------------|-----------7------7-|-8----7-8-10-7-8-10-|---10------------10-|-12-|
|-0-|-5-0-5-7-8-5-7-8-|-10-7-8-10---8-10---|---10---------------|--------------------|----|
|---|-----------------|--------------------|--------------------|--------------------|----|


Any Questions Just Ask
Suggest correction
comments
print report bad tab
2 comments total.
0 reply
gjvx 41 wrote on December 28 2008, 03:45 pm

This is an excellent tab mate, good job breaking it down into easier bits! :)

Thanks chachee123!

0 reply
LordShado 217 wrote on November 12 2009, 12:55 am

Thank you a lot for this tab it is perfect, please keep it up!

guest
You may want to rate the tab now too:
select rating
Please do not post tabs as comments. Select "correction" instead!