Oops, an error
Loading. Please wait.

World Long Gone Tab

version 2
version 2

Intro

Whole song

Interactive

19,228 views 9 this week
1 commentread comment
1 2 3 4 5
excellent!
x 2
add to favorites
launch autoscroll
font size
0
reset
how to read this tab
guitar tuner
Tab Pro tools
  • play this tab
  • loop segment
  • change instrument
  • show fretboard
  • metronome
Autoscroll
slow
fast
+/-
esc
set tempo
stop
Contributor
-------------------------------------------------------------------------------
                                     World Long Gone - Scars on Broadway
-------------------------------------------------------------------------------
Tabbed by: Ruben Morneo
Email: morenoind5@aol.com

Tuning: C# G# C# F# A# D#

   4x:
D#|--------------------------------------------------|
A#|--------------------------------------------------|
F#|--------------------------------------------------|
C#|--------------------------------------------------|
G#|-----5--------------------------------------------|
C#|--7-----7--8--5--7--3--5--2--3--0--2--3--5--3--2--|

   2x:                
D#|-----------------|-----------------|
A#|--4x:------------|--4x:------------|
F#|-----------------|-----------------|
C#|--7-7-7-7-7-7-7--|--5-5-5-5-5-5-5--|
G#|--5-5-5-5-5-5-5--|--3-3-3-3-3-3-3--|
C#|-----------------|-----------------|

   2x: (After 2nd time do a pick scrape)
     PM................................
D#|--------------------------------------|
A#|--------------------------------------|
F#|--------------------------------------|
C#|--7777777777777777--5555555555555555--|
G#|--5555555555555555--3333333333333333--|
C#|--------------------------------------|
   
   1x:
D#|-------------------------------------------------------|
A#|-------------------------------------------------------|
F#|-------------------------------------------------------|
C#|--3-3-3-3-3-3--7-7-7-7-7-7--5-5-5-5-5-5--3-3-3--2-2-2--|
G#|--1-1-1-1-1-1--5-5-5-5-5-5--3-3-3-3-3-3--1-1-1--0-0-0--|
C#|---------------0-0-0-0-0-0-----------------------------|

   4x:
D#|--------------------------------------------------|
A#|--------------------------------------------------|
F#|--------------------------------------------------|
C#|--------------------------------------------------|
G#|-----5--------------------------------------------|
C#|--7-----7--8--5--7--3--5--2--3--0--2--3--5--3--2--|   
   
   2x:                
D#|-----------------|-----------------|
A#|--4x:------------|--4x:------------|
F#|-----------------|-----------------|
C#|--7-7-7-7-7-7-7--|--5-5-5-5-5-5-5--|
G#|--5-5-5-5-5-5-5--|--3-3-3-3-3-3-3--|
C#|-----------------|-----------------|

   2x: (After 2nd time do a pick scrape)
     PM................................
D#|--------------------------------------|
A#|--------------------------------------|
F#|--------------------------------------|
C#|--7777777777777777--5555555555555555--|
G#|--5555555555555555--3333333333333333--|
C#|--------------------------------------|

   1x:
D#|----------------------------------------------------------------------------------------------|
A#|----------------------------------------------------------------------------------------------|
F#|----------------------------------------------------------------------------------------------|
C#|--3-3-3-3-3-3--7-7-7-7-7-7--5-5-5-5-5-5--3-3-3-3-3-3--7-7-7-7-7-7--5-5-5-5-5-5--3-3-3--2-2-2--|
G#|--1-1-1-1-1-1--5-5-5-5-5-5--3-3-3-3-3-3--1-1-1-1-1-1--5-5-5-5-5-5--3-3-3-3-3-3--1-1-1--0-0-0--|
C#|---------------0-0-0-0-0-0----------------------------0-0-0-0-0-0-----------------------------|

   3x:
D#|--------------------------------------------------|
A#|--------------------------------------------------|
F#|--------------------------------------------------|
C#|--------------------------------------------------|
G#|-----5--------------------------------------------|
C#|--7-----7--8--5--7--3--5--2--3--0--2--3--5--3--2--| 
   
   1x:
D#|-----------------------------------------------------
A#|-----------------------------------------------------
F#|-----------------------------------------------------
C#|-----------------------------5---------5---7-----5---
G#|-----5-----5--7--8--5--7--8------7--8---------8------
C#|--7-----7--------------------------------------------

   -------------------------------------------------------------|
   ------------------------------------------5---6---5----------|
   ----------------5---------5---7---5---7---------------7---5--|
   7--8--5---7--8------7--8-------------------------------------|
   -------------------------------------------------------------|
   -------------------------------------------------------------|

   2x: 
        PM...........     ........
D#|--------------------------------------|
A#|--------------------------------------|
F#|--------------------------------------|
C#|--7--7777777777777--5--5555555555555--|
G#|--5--5555555555555--3--3333333333333--|
C#|--------------------------------------|

   1x:
D#|----------------------------------------------------------------------------------------------|
A#|----------------------------------------------------------------------------------------------|
F#|----------------------------------------------------------------------------------------------|
C#|--3-3-3-3-3-3--7-7-7-7-7-7--5-5-5-5-5-5--3-3-3-3-3-3--7-7-7-7-7-7--5-5-5-5-5-5--3-3-3--2-2-2--|
G#|--1-1-1-1-1-1--5-5-5-5-5-5--3-3-3-3-3-3--1-1-1-1-1-1--5-5-5-5-5-5--3-3-3-3-3-3--1-1-1--0-0-0--|
C#|---------------0-0-0-0-0-0----------------------------0-0-0-0-0-0-----------------------------|

   3x:
D#|--------------------------------------------------|
A#|--------------------------------------------------|
F#|--------------------------------------------------|
C#|--------------------------------------------------|
G#|-----5--------------------------------------------|
C#|--7-----7--8--5--7--3--5--2--3--0--2--3--5--3--2--| 


   1x:
D#|-----------------------------------------------------
A#|-----------------------------------------------------
F#|-----------------------------------------------------
C#|-----------------------------5---------5---7-----5---
G#|-----5-----5--7--8--5--7--8------7--8---------8------
C#|--7-----7--------------------------------------------

   -------------------------------------------------------------|
   ------------------------------------------5---6---5----------|
   ----------------5---------5---7---5---7---------------7---5--|
   7--8--5---7--8------7--8-------------------------------------|
   -------------------------------------------------------------|
   -------------------------------------------------------------|

End with:
D#|-----|
A#|-----|
F#|-----|
C#|--7--|
G#|--5--|
C#|-----|

comments
We did not receive enough feedback on this tab! Please rate:
print report bad tab
1 2 3 4 5
1 comment total.
0 reply
EliteBouncer wrote on September 5 2009, 11:45 am

i like yours
even more detailed and compressed than my one

I want to post or [tab]
guest
You may want to rate the tab now too:
select rating
Please do not post tabs as comments. Select "correction" instead!