Oops, an error
Loading. Please wait.

A Breath Of Sunshine tab

version 1
version 1

Whole song

Interactive

6,685 views 1 this week
no commentswrite comment
1 2 3 4 5
2 more votes to show rating
add to favorites
×
Save as Personal and add changes to this tab that will be seen only by you. Learn more ›
×
You can save this tab as Personal to edit and correct it or add notes. All changes will be seen only by you. Learn more »
launch autoscroll
font size
0
reset
how to read this tab
guitar tuner
edit
Autoscroll
slow
fast
+/-
esc
set tempo
stop
Author
Difficulty
Tabbed by: Joshua Garcia (joshuag523@aol.com)

Tabs For the song: A Breath Of Sunshine by Scary Kids Scaring Kids
Please rate and let me know if you have any corrections. Thank you.


Guitar 1 = Left
Guitar 2 = Right


Tuning: Standard (E A D G B E)

  
Intro
Guitar 1:
E||-----12------14-------10~--|-----12------14-------10~--|
B||--------0------------------|--------0------------------|
G||--12------12----12\11------|--12------12----12\11------|
D||---------------------------|---------------------------|
A||---------------------------|---------------------------|
E||---------------------------|---------------------------|


E||-----0-------0-------0-------0-------0------|-----0-----------------------------------------|
B||-------12------12------12------12------12~--|-------12-------12-------12-------12-------12--|
G||--------------------------------------------|----------11h12----11h12----11h12----11h12-----|
D||--10------10------10------10------10--------|--12-------------------------------------------| x2
A||--------------------------------------------|-----------------------------------------------|
E||--------------------------------------------|-----------------------------------------------|


Guitar 2:
E||----7-----------7\--|----7-----------7\--|
B||------8---7h8p7-----|------8---7h8p7-----|
G||--9-----9-----------|--9-----9-----------|
D||--------------------|--------------------|
A||--------------------|--------------------|
E||--------------------|--------------------|


E||------------------------------------------------|
B||-----12-------12-------12-------10-------10-----|
G||--------12-------12-------12-------12-------12--|
D||--10-------10-------10-------10-------10--------|
A||------------------------------------------------|
E||------------------------------------------------|


E||------------------------------------------------|
B||-----12-------12-------10-------10-------10-----|
G||--------12-------12-------12-------12-------12--|
D||--12-------12-------12-------12-------12--------| x2
A||------------------------------------------------|
E||------------------------------------------------|



Verse
Guitar 1:
E||--------10-----------------------10------------10--------7-------|
B||--7h8------8----7h8--------7h8------8----7h8------8-8-10---10-8--|
G||------0-------------7\---------0-------------0-------------------|
D||-----------------------------------------------------------------|
A||-----------------------------------------------------------------|
E||-----------------------------------------------------------------|


E||--------10-----------------------------------------------------|
B||--7h8------8----7h8----------8-7---8-7---8-7---8-7---10-7------|
G||------0-------------7\-----------7-----7-----7-----7------7~---|
D||---------------------------------------------------------------|
A||---------------------------------------------------------------|
E||---------------------------------------------------------------|


E||--------10-----------------------10------------10--------7-------|
B||--7h8------8----7h8--------7h8------8----7h8------8-8-10---10-8--|
G||------0-------------7\---------0-------------0-------------------|
D||-----------------------------------------------------------------|
A||-----------------------------------------------------------------|
E||-----------------------------------------------------------------|


E||--------10-----------------------------------------------------|
B||--7h8------8----7h8----------8-7---8-7---8-7---8-7---10-7---7--|
G||------0-------------7\-----------7-----7-----7-----7------7----|
D||---------------------------------------------------------------|
A||---------------------------------------------------------------|
E||---------------------------------------------------------------|


Guitar 2:
E||--------------------------------------------------------------|
B||--8~--8~----------7~----------8~--8~----------7~------7~--7~--|
G||--x---x-----------x-----------x---x-----------x-------x---x---|
D||--9~--9~----------7~----------9~--9~----------7~------7~--7~--|
A||--7~--7~----------5~----------7~--7~----------5~------5~--5~--|
E||--------------------------------------------------------------|


E||--------------------------------------------------------------|
B||--8~--8~----------7~---------7-7-7-7-7-7-7-7-7-7-7-7-7-7-7-7--|
G||--x---x-----------x----------x-x-x-x-x-x-x-x-x-x-x-x-x-x-x-x--|
D||--9~--9~----------7~---------7-7-7-7-7-7-7-7-7-7-7-7-7-7-7-7--| x2
A||--7~--7~----------5~---------5-5-5-5-5-5-5-5-5-5-5-5-5-5-5-5--|
E||--------------------------------------------------------------|



Pre-Chorus
Guitar 1:
E||------------------------|
B||--8--7-----8--7-----8~--|
G||--------7--------7------|
D||------------------------|
A||------------------------|
E||------------------------|


Guitar 2:
E||-------------------------------|
B||--12--10------12--10------12~--|
G||----------11----------11-------|
D||-------------------------------|
A||-------------------------------|
E||-------------------------------|


Guitar 3:
E||----------------------|
B||----------------------|
G||--5-5--x--5-5--x--5~--|
D||--5-5--x--5-5--x--5~--|
A||--3-3--x--3-3--x--3~--|
E||----------------------|



Verse
Guitar 1:
E||--------10-----------------------10------------10--------7-------|
B||--7h8------8----7h8--------7h8------8----7h8------8-8-10---10-8--|
G||------0-------------7\---------0-------------0-------------------|
D||-----------------------------------------------------------------|
A||-----------------------------------------------------------------|
E||-----------------------------------------------------------------|


E||--------10------------------------------------------------------|
B||--7h8------8----7h8----------8-7---8-7---8-7---8-7---10-7---7---|
G||------0-------------7\-----------7-----7-----7-----7------7-----|
D||----------------------------------------------------------------|
A||----------------------------------------------------------------|
E||----------------------------------------------------------------|


Guitar 2:
E||--------------------------------------------------------------|
B||--8~--8~----------7~----------8~--8~----------7~------7~--7~--|
G||--x---x-----------x-----------x---x-----------x-------x---x---|
D||--9~--9~----------7~----------9~--9~----------7~------7~--7~--|
A||--7~--7~----------5~----------7~--7~----------5~------5~--5~--|
E||--------------------------------------------------------------|


E||--------------------------------------------------------------|
B||--8~--8~----------7~---------7-7-7-7-7-7-7-7-7-7-7-7-7-7-7-7--|
G||--x---x-----------x----------x-x-x-x-x-x-x-x-x-x-x-x-x-x-x-x--|
D||--9~--9~----------7~---------7-7-7-7-7-7-7-7-7-7-7-7-7-7-7-7--|
A||--7~--7~----------5~---------5-5-5-5-5-5-5-5-5-5-5-5-5-5-5-5--|
E||--------------------------------------------------------------|



Pre-Chorus
Guitar 1:
E||-------------------------------------------------------|
B||---8--7-----8--7-----8--7--8--7-----8--7-----88888888--|
G||---------7--------7--------------7--------7------------|
D||-------------------------------------------------------| 
A||-------------------------------------------------------|
E||-------------------------------------------------------|


Guitar 2:
E||---------------------------------|---------------------------------------------|
B||--12--10------12--10------12-10--|--12--10--10--12--10--10---1212121212121212--|
G||----------11----------11---------|---------------------------------------------|
D||---------------------------------|---------------------------------------------|
A||---------------------------------|---------------------------------------------|
E||---------------------------------|---------------------------------------------|


Guitar 3:
E||------------------------|----------------------------|
B||------------------------|----------------------------|
G||--5-5--x--5-5--x--55-x--|--5-5--x--5-5--x--77777777--|
D||--5-5--x--5-5--x--55-x--|--5-5--x--5-5--x--77777777--|
A||--3-3--x--3-3--x--33-x--|--3-3--x--3-3--x--55555555--|
E||------------------------|----------------------------|



Chorus
Guitar 1:
E||-------------------------------------------------------------------10--7------|
B||--8--7--------------10--7--------------8--7--------------8--7-------------10--|
G||--------7--------7---------7--------7--------7--------7--------7--------------|
D||-----------7--9---------------7--9--------------7--9--------------------------|
A||------------------------------------------------------------------------------|
E||------------------------------------------------------------------------------|


E||-------------------------------------------|
B||--8--7--------------10--7--------------8~--|
G||--------7--------7---------7--------7------|
D||-----------7--9---------------7--9---------|
A||-------------------------------------------|
E||-------------------------------------------|


Guitar 2:
E||---------------------------------------------------------|
B||---------------------------------------------------------|
G||----------------------------555555555555----------77777--|
D||--222222222222-555555555555-555555555555--77777---77777--|
A||--222222222222-555555555555-333333333333--77777---55555--|
E||--000000000000-333333333333---------------55555----------|


E||--------------------------------|
B||--------------------------------|
G||----------------------------5~--|
D||--222222222222-555555555555-5~--|
A||--222222222222-555555555555-3~--|
E||--000000000000-333333333333-----|



Guitar 1:
E||----------3-2-------|
B||------3-------3-----|
G||----0-----------0~--|
D||--------------------|
A||--3-----3-----------|
E||--------------------|


Guitar 2:
E||-----------7----------|
B||------8------7-8/10~--|
G||--7h9-----------------|
D||----------------------|
A||----------------------|
E||----------------------|



Verse
Guitar 1:
E||--------10-----------------------10----------------------7-------|
B||--7h8------8----7h8--------7h8------8----7h8------8~--10---10-8--|
G||------0-------------7\---------0-------------0~------------------|
D||-----------------------------------------------------------------|
A||-----------------------------------------------------------------|
E||-----------------------------------------------------------------|


E||--------10-----------------------------------------------------|
B||--7h8------8----7h8----------8-7---8-7---8-7---8-7---10-7---7--|
G||------0-------------7\-----------7-----7-----7-----7------7----|
D||---------------------------------------------------------------|
A||---------------------------------------------------------------|
E||---------------------------------------------------------------|


E||--------10-----------------------10------------10--------7-------|
B||--7h8------8----7h8--------7h8------8----7h8------8-8-10---10-8--|
G||------0-------------7\---------0-------------0-------------------|
D||-----------------------------------------------------------------|
A||-----------------------------------------------------------------|
E||-----------------------------------------------------------------|


E||--------10-----------------------------------------------------|
B||--7h8------8----7h8----------8-7---8-7---8-7---8-7---10-7---7--|
G||------0-------------7\-----------7-----7-----7-----7------7----|
D||---------------------------------------------------------------|
A||---------------------------------------------------------------|
E||---------------------------------------------------------------|


Guitar 2:
E||--------------------------------------------------------------|
B||--8~--8~----------7~----------8~--8~----------7~------7~--7~--|
G||--x---x-----------x-----------x---x-----------x-------x---x---|
D||--9~--9~----------7~----------9~--9~----------7~------7~--7~--|
A||--7~--7~----------5~----------7~--7~----------5~------5~--5~--|
E||--------------------------------------------------------------|


E||--------------------------------------------------------------|
B||--8~--8~----------7~---------7-7-7-7-7-7-7-7-7-7-7-7-7-7-7-7--|
G||--x---x-----------x----------x-x-x-x-x-x-x-x-x-x-x-x-x-x-x-x--|
D||--9~--9~----------7~---------7-7-7-7-7-7-7-7-7-7-7-7-7-7-7-7--| x2
A||--7~--7~----------5~---------5-5-5-5-5-5-5-5-5-5-5-5-5-5-5-5--|
E||--------------------------------------------------------------|



Pre-Chorus
Guitar 1:
E||-----------------------------------1010101010101010--|
B||---8-7----8-7----8-7---8-7---8-7---------------------|
G||-------7------7------------7-----7-------------------|
D||-----------------------------------------------------| 
A||-----------------------------------------------------|
E||-----------------------------------------------------|
                                      (^10's)

Guitar 2:
E||---------------------------------|---------------------------------------------|
B||--12--10------12--10------12-10--|--12--10------12------10---1212121212121212--|
G||----------11----------11---------|----------11------11-------------------------|
D||---------------------------------|---------------------------------------------|
A||---------------------------------|---------------------------------------------|
E||---------------------------------|---------------------------------------------|


Guitar 3:
E||------------------------|----------------------------|
B||------------------------|----------------------------|
G||--5-5--x--5-5--x--55-x--|--5-5--x--5-5--x--77777777--|
D||--5-5--x--5-5--x--55-x--|--5-5--x--5-5--x--77777777--|
A||--3-3--x--3-3--x--33-x--|--3-3--x--3-3--x--55555555--|
E||------------------------|----------------------------|



Chorus
Guitar 1:
E||-------------------------------------------------------------------10--7------|
B||--8--7--------------10--7--------------8--7--------------8--7-------------10--|
G||--------7--------7---------7--------7--------7--------7--------7--------------|
D||-----------7--9---------------7--9--------------7--9--------------------------|
A||------------------------------------------------------------------------------|
E||------------------------------------------------------------------------------|


E||---------------------------------------|
B||--8--7--------------10--7--------------|
G||--------7--------7---------7--------7--|
D||-----------7--9---------------7--9-----|
A||---------------------------------------|
E||---------------------------------------|


E||--------------------------------10--7----------------|
B||--8--7------8--7------8--7-------------10b12~-~-~-~--|
G||--------7---------7---------7------------------------|
D||-----------------------------------------------------|
A||-----------------------------------------------------|
E||-----------------------------------------------------|


Guitar 2:
E||---------------------------------------------------------|
B||---------------------------------------------------------|
G||----------------------------555555555555----------77777--|
D||--222222222222-555555555555-555555555555--77777---77777--|
A||--222222222222-555555555555-333333333333--77777---55555--|
E||--000000000000-333333333333---------------55555----------|


E||------------------------------------------------------|
B||------------------------------------------------------|
G||----------------------------555555555555555555555555--|
D||--222222222222-555555555555-555555555555555555555555--|
A||--222222222222-555555555555-333333333333333333333333--|
E||--000000000000-333333333333---------------------------|



Bridge
Guitar 1:
E||------------|
B||--(10b12~)--|
G||------------|
D||------------|
A||------------|
E||------------|


Guitar 2:
E||-----|
B||-----|
G||-----|
D||--2--|
A||--2--|
E||--0--|



Pre-Chorus
Guitar 1/2:
E||-----------------------------------------------------------------|
B||-----------------------------------------------------------------|
G||----------------------------------5~----5~----5~-5~-5~-7~-7~-7~--|
D||--2~----2~----2~-2~-2~-2~-2~-2~---5~----5~----5~-5~-5~-7~-7~-7~--| x2
A||--2~----2~----2~-2~-2~-2~-2~-2~---3~----3~----3~-3~-3~-5~-5~-5~--|
E||--0~----0~----0~-0~-0~-0~-0~-0~----------------------------------|


E||-------------------------|
B||-------------------------|
G||--222222-444444-5555555--|
D||--222222-444444-5555555--|
A||--000000-222222-3333333--|
E||-------------------------|



Chorus
Guitar 1:
E||-------------------------------------------------------------------10--7------|
B||--8--7--------------10--7--------------8--7--------------8--7-------------10--|
G||--------7--------7---------7--------7--------7--------7--------7--------------|
D||-----------7--9---------------7--9--------------7--9--------------------------| x2
A||------------------------------------------------------------------------------|
E||------------------------------------------------------------------------------|


E||-----------------------------------------------------------|
B||--8--7--------------10--7--------------8--7------8--7------|
G||--------7--------7---------7--------7--------7---------7---|
D||-----------7--9---------------7--9-------------------------|
A||-----------------------------------------------------------|
E||-----------------------------------------------------------|


E||-------------------------|
B||--8--7-------------------|
G||--------7---7/9--11--12--|
D||-------------------------|
A||-------------------------|
E||-------------------------|


Guitar 2:
E||---------------------------------------------------------|
B||---------------------------------------------------------|
G||----------------------------555555555555----------77777--|
D||--222222222222-555555555555-555555555555--77777---77777--| x2
A||--222222222222-555555555555-333333333333--77777---55555--|
E||--000000000000-333333333333---------------55555----------|


E||------------------------------------------------|
B||------------------------------------------------|
G||-----------------------------5-5--x--5-5--x--5--|
D||--222222222222-555555555555--5-5--x--5-5--x--5--|
A||--222222222222-555555555555--3-3--x--3-3--x--3--|
E||--000000000000-333333333333---------------------|


E||----------------------------|
B||--12----------------10--12--|
G||------11--12---/12----------|
D||----------------------------|
A||----------------------------|
E||----------------------------|


Outro
Guitar 1:

E||------0--------0---------------0----12~--|-----------------------------------------|
B||--12-------12-------12-----12------------|----------------------------------10h12--|
G||--------12-------12----12--------12------|--12--11-------12--11--11---11h12--------|
D||-----------------------------------------|----------12-----------------------------| x2
A||-----------------------------------------|-----------------------------------------|
E||-----------------------------------------|-----------------------------------------|


E||------0--------0---------------0----12~--|
B||--12-------12-------12-----12------------|
G||--------12-------12----12--------12------|
D||-----------------------------------------|
A||-----------------------------------------|
E||-----------------------------------------|


E||--------------------------10-----------12---------|
B||---------------12-------------------------12------|
G||--12--11-----------9--9-------11--12----------11--|
D||----------12--------------------------------------|
A||--------------------------------------------------|
E||--------------------------------------------------|


E||--14--------|
B||-----12-----|
G||--------12--| x16
D||------------|
A||------------|
E||------------|


E||---14~--|
B||---12~--|
G||---12~--|
D||--------|
A||--------|
E||--------|


Guitar 2:
E||--10-------10-------10-----10-------10--------|
B||----------------------------------------------|
G||-----11-12----11-12----12-----11-12----11-12--|
D||----------------------------------------------|
A||----------------------------------------------|
E||----------------------------------------------|


E||-----------------------------------------|
B||----------------------------------10h12--|
G||--12--11-------12--11-------9/12---------|
D||----------12-----------12----------------| x2
A||-----------------------------------------|
E||-----------------------------------------|


E||----------------------------14-----------15----------|
B||---------------15---------------12-----------12------|
G||--12--11-----------11--12-----------12-----------12--|
D||----------12-----------------------------------------|
A||-----------------------------------------------------|
E||-----------------------------------------------------|


E||--17--------|
B||-----15-----|
G||--------16--| x16
D||------------|
A||------------|
E||------------|


E||---17~--|
B||---15~--|
G||---16~--|
D||--------|
A||--------|
E||--------|





Tablature Legend
----------------
 h   hammer-on
 p   pull-off
 b   bend
 pb  pre-bend
 r   release bend
 ~   hold / vibrato
 .   palm mute
 /   slide up
 \   slide down
 *   pinch harmonic
 '   natural harmonic
 x   mute note
 T   tap
Suggest correction
Creating personal tab
Creating personal tab
You can edit any tab online and save it as your Personal.

You can edit, replace or remove any tab part or add personal notes – all changes will be seen only by you.

Personal tabs can be accessed anytime from any device, even offline.
Learn more »
Give kudos to tab author, rate the tab!
1 2 3 4 5
comments
print report bad tab
guest
You may want to rate the tab now too:
select rating
Wanna post a correction for this tab? Suggest correction