Oops, an error
Loading. Please wait.

The Only Medicine tab

version 3
version 3

Whole song

Interactive

4,563 views 1 this week
4 commentsread comments
1 2 3 4 5
x 5
add to favorites
×
Save as Personal and add changes to this tab that will be seen only by you. Learn more ›
×
You can save this tab as Personal to edit and correct it or add notes. All changes will be seen only by you. Learn more »
launch autoscroll
font size
0
reset
how to read this tab
guitar tuner
edit
Autoscroll
slow
fast
+/-
esc
set tempo
stop
                    The Only Medicine                                 


                                                         Scary Kids Scaring Kids
Guitar 1



             PM PM                                                
             E  E  E  E  E  E  E  E     E  E  E  E  S S E  E  E   
E||-------|--------------------------|---------------------------|
B||-------|--------------------------|---------------------------|
G||-------|--------------------------|---------------------------|
D||-------|--4--4--7--4--6--4--6--7--|--9--4--7--4--6-7-6--------|
A||-------|--4--4--------------------|---------------------7--9--|
D||-------|--4--4--------------------|---------------------------|


  PM PM                                                
  E  E  E  E  E  E  E  E     E  E  E  E  S S E  E  E   
--------------------------|---------------------------|
--------------------------|---------------------------|
--------------------------|---------------------------|
--4--4--7--4--6--4--6--7--|--9--4--7--4--6-7-6--------|
--4--4--------------------|---------------------7--5--|
--4--4--------------------|---------------------------|


  PM PM                                                
  E  E  E  E  E  E  E  E     E  E  E  E  S S E  E  E   
--------------------------|---------------------------|
--------------------------|---------------------------|
--------------------------|---------------------------|
--0--0--7--4--6--4--6--7--|--9--4--7--4--6-7-6--------|
--0--0--------------------|---------------------7--9--|
--0--0--------------------|---------------------------|


  PM PM                                                
  E  E  E  E  E  E  E  E     E  E  E  E  S S E  E  E   
--------------------------|---------------------------|
--------------------------|---------------------------|
--------------------------|---------------------------|
--0--0--7--4--6--4--6--7--|--9--4--7--4--6-7-6--------|
--0--0--------------------|---------------------7--9--|
--0--0--------------------|---------------------------|


  PM PM PM PM PM PM PM PM PM PM PM PM    PM                      
  E  S  S  E  S  S  E  S  S  E  S  S     E  E  Q    E   Q    E   
--------------------------------------|-------------------------|
--------------------------------------|-------------------------|
--------------------------------------|-------------------------|
--4--4--4--4--4--4--4--4--4--4--4--4--|--4--7--6----------------|
--4--4--4--4--4--4--4--4--4--4--4--4--|--4----------7s--9----9--|
--4--4--4--4--4--4--4--4--4--4--4--4--|--4----------------------|


  PM PM PM PM PM PM PM PM PM PM PM PM    PM                      
  E  S  S  E  S  S  E  S  S  E  S  S     E  E  Q    E  E  E  E   
--------------------------------------|-------------------------|
--------------------------------------|-------------------------|
--------------------------------------|-------------------------|
--4--4--4--4--4--4--4--4--4--4--4--4--|--4--7--6----9--7--6-----|
--4--4--4--4--4--4--4--4--4--4--4--4--|--4-------------------9--|
--4--4--4--4--4--4--4--4--4--4--4--4--|--4----------------------|


  PM PM PM PM PM PM PM PM PM PM PM PM    PM                      
  E  S  S  E  S  S  E  S  S  E  S  S     E  E  Q    E   Q    E   
--------------------------------------|-------------------------|
--------------------------------------|-------------------------|
--------------------------------------|-------------------------|
--0--0--0--0--0--0--0--0--0--0--0--0--|--0--7--6----------------|
--0--0--0--0--0--0--0--0--0--0--0--0--|--0----------7s--9----9--|
--0--0--0--0--0--0--0--0--0--0--0--0--|--0----------------------|


  PM PM PM PM PM PM PM PM PM PM PM PM    PM PM PM PM PM PM              
  E  S  S  E  S  S  E  S  S  E  S  S     E  S  S  E  S  S  E  E  E  E   
--------------------------------------|--------------------------------|
--------------------------------------|--------------------------------|
--------------------------------------|--------------------------------|
--0--0--0--0--0--0--0--0--0--0--0--0--|--0--0--0--0--0--0--2--2--2--4--|
--0--0--0--0--0--0--0--0--0--0--0--0--|--0--0--0--0--0--0--2--2--2--4--|
--0--0--0--0--0--0--0--0--0--0--0--0--|--0--0--0--0--0--0--2--2--2--4--|


       PM PM PM PM PM PM    PM                             PM PM PM PM PM PM  
  Q    E  E  E  E  E  E     E  E  Q    E   Q    E     Q    E  E  E  E  E  E   
-------------------------|-------------------------|-------------------------|
-------------------------|-------------------------|-------------------------|
-------------------------|-------------------------|-------------------------|
--L----4--4--4--4--4--4--|--4--7--6----------------|--4----4--4--4--4--4--4--|
--L----4--4--4--4--4--4--|--4----------7s--9----9--|--4----4--4--4--4--4--4--|
--L----4--4--4--4--4--4--|--4----------------------|--4----4--4--4--4--4--4--|


  PM                             PM PM PM PM PM PM    PM                      
  E  E  Q    E  E  E  E     Q    E  E  E  E  E  E     E  E  Q    E   Q    E   
-------------------------|-------------------------|-------------------------|
-------------------------|-------------------------|-------------------------|
-------------------------|-------------------------|-------------------------|
--4--7--6----9--7--6-----|--0----0--0--0--0--0--0--|--0--7--6----------------|
--4-------------------9--|--0----0--0--0--0--0--0--|--0----------7s--9----9--|
--4----------------------|--0----0--0--0--0--0--0--|--0----------------------|


       PM PM PM PM PM PM                           
  Q    E  E  E  E  E  E     Q    Q    E   E  Q     
-------------------------|------------------------|
-------------------------|------------------------|
-------------------------|------------------------|
--0----0--0--0--0--0--0--|--2----2----2s--4--L----|
--0----0--0--0--0--0--0--|--2----2----2s--4--L----|
--0----0--0--0--0--0--0--|--2----2----2s--4--L----|


  PM PM PM PM PM PM PM PM PM PM PM PM    PM                      
  E  S  S  E  S  S  E  S  S  E  S  S     E  E  Q    E   Q    E   
--------------------------------------|-------------------------|
--------------------------------------|-------------------------|
--------------------------------------|-------------------------|
--4--4--4--4--4--4--4--4--4--4--4--4--|--4--7--6----------------|
--4--4--4--4--4--4--4--4--4--4--4--4--|--4----------7s--9----9--|
--4--4--4--4--4--4--4--4--4--4--4--4--|--4----------------------|


  PM PM PM PM PM PM PM PM PM PM PM PM    PM                      
  E  S  S  E  S  S  E  S  S  E  S  S     E  E  Q    E  E  E  E   
--------------------------------------|-------------------------|
--------------------------------------|-------------------------|
--------------------------------------|-------------------------|
--4--4--4--4--4--4--4--4--4--4--4--4--|--4--7--6----9--7--6-----|
--4--4--4--4--4--4--4--4--4--4--4--4--|--4-------------------9--|
--4--4--4--4--4--4--4--4--4--4--4--4--|--4----------------------|


  PM PM PM PM PM PM PM PM PM PM PM PM    PM                      
  E  S  S  E  S  S  E  S  S  E  S  S     E  E  Q    E   Q    E   
--------------------------------------|-------------------------|
--------------------------------------|-------------------------|
--------------------------------------|-------------------------|
--0--0--0--0--0--0--0--0--0--0--0--0--|--0--7--6----------------|
--0--0--0--0--0--0--0--0--0--0--0--0--|--0----------7s--9----9--|
--0--0--0--0--0--0--0--0--0--0--0--0--|--0----------------------|


  PM PM PM PM PM PM PM PM PM PM PM PM                             
  E  S  S  E  S  S  E  S  S  E  S  S     E  E  E  E  E   E  Q     
--------------------------------------|--------------------------|
--------------------------------------|--------------------------|
--------------------------------------|--------------------------|
--0--0--0--0--0--0--0--0--0--0--0--0--|--2--2--2--2--2s--4--L----|
--0--0--0--0--0--0--0--0--0--0--0--0--|--2--2--2--2--2s--4--L----|
--0--0--0--0--0--0--0--0--0--0--0--0--|--2--2--2--2--2s--4--L----|


       PM PM      PM PM         PM PM      PM PM                         
  Q    E  E  Q    E  E     Q    E  E  Q    E  E     Q.     Q    Q    E   
------------------------|------------------------|----------------------|
------------------------|------------------------|----------------------|
------------------------|------------------------|----------------------|
--0----0--0--0----0--0--|--2----2--2--2----2--2--|--4------7----6-------|
--0----0--0--0----0--0--|--2----2--2--2----2--2--|--4----------------7--|
--0----0--0--0----0--0--|--2----2--2--2----2--2--|--4-------------------|


                                PM PM PM PM PM PM                           
  E  Q    Q    E  E  E     Q    E  E  E  E  E  E     Q    E  E  Q    E  E   
------------------------|-------------------------|------------------------|
------------------------|-------------------------|------------------------|
------------------------|-------------------------|------------------------|
---------------6--------|--0----0--0--0--0--0--0--|--7----7--7--2----2--2--|
--L--4----7-------7--4--|--0----0--0--0--0--0--0--|--7----7--7--2----2--2--|
------------------------|--0----0--0--0--0--0--0--|--7----7--7--2----2--2--|


                                                       PM PM PM PM PM PM  
  Q.     Q    Q    E     E  Q    Q    E  E  E     Q    E  E  E  E  E  E   
----------------------|------------------------|-------------------------|
----------------------|------------------------|-------------------------|
----------------------|------------------------|-------------------------|
--4------7----6-------|---------------6--------|--0----0--0--0--0--0--0--|
--4----------------7--|--L--4----7-------7--4--|--0----0--0--0--0--0--0--|
--4-------------------|------------------------|--0----0--0--0--0--0--0--|


  Q    E  E  Q    E  E     Q.     Q    Q    E     E  Q    Q    E  E  E   
------------------------|----------------------|------------------------|
------------------------|----------------------|------------------------|
------------------------|----------------------|------------------------|
--7----7--7--2----2--2--|--4------7----6-------|---------------6--------|
--7----7--7--2----2--2--|--4----------------7--|--L--4----7-------7--4--|
--7----7--7--2----2--2--|--4-------------------|------------------------|


       PM PM PM PM PM PM                            PM PM                    
  Q    E  E  E  E  E  E     Q    E  E  Q    Q       E  E  E  E  E  E  E  E   
-------------------------|-----------------------|--------------------------|
-------------------------|-----------------------|--------------------------|
-------------------------|-----------------------|--------------------------|
--0----0--0--0--0--0--0--|--7----7--7--2----2----|--4--4--7--4--6--4--6--7--|
--0----0--0--0--0--0--0--|--7----7--7--2----2----|--4--4--------------------|
--0----0--0--0--0--0--0--|--7----7--7--2----2----|--4--4--------------------|


                              PM PM                    
  E  E  E  E  S S E  E  E     E  E  E  E  E  E  E  E   
---------------------------|--------------------------|
---------------------------|--------------------------|
---------------------------|--------------------------|
--9--4--7--4--6-7-6--------|--4--4--7--4--6--4--6--7--|
---------------------7--9--|--4--4--------------------|
---------------------------|--4--4--------------------|


                              PM PM PM PM PM PM PM PM PM PM PM PM  
  E  E  E  E  S S E  E  E     E  S  S  E  S  S  E  S  S  E  S  S   
---------------------------|--------------------------------------|
---------------------------|--------------------------------------|
---------------------------|--------------------------------------|
--9--4--7--4--6-7-6--------|--0--0--0--0--0--0--0--0--0--0--0--0--|
---------------------7--5--|--0--0--0--0--0--0--0--0--0--0--0--0--|
---------------------------|--0--0--0--0--0--0--0--0--0--0--0--0--|


  PM                        PM PM PM PM PM PM PM PM PM PM PM PM  
  E  E  Q    E   Q    E     E  S  S  E  S  S  E  S  S  E  S  S   
-------------------------|--------------------------------------|
-------------------------|--------------------------------------|
-------------------------|--------------------------------------|
--0--7--6----------------|--0--0--0--0--0--0--0--0--0--0--0--0--|
--0----------7s--9----9--|--0--0--0--0--0--0--0--0--0--0--0--0--|
--0----------------------|--0--0--0--0--0--0--0--0--0--0--0--0--|


                                  PM PM PM PM PM PM    PM                      
  E  E  E  E  E   E  Q       Q    E  E  E  E  E  E     E  E  Q    E   Q    E   
--------------------------|-------------------------|-------------------------|
--------------------------|-------------------------|-------------------------|
--------------------------|-------------------------|-------------------------|
--2--2--2--2--2s--4--L----|--4----4--4--4--4--4--4--|--4--7--6----------------|
--2--2--2--2--2s--4--L----|--4----4--4--4--4--4--4--|--4----------7s--9----9--|
--2--2--2--2--2s--4--L----|--4----4--4--4--4--4--4--|--4----------------------|


       PM PM PM PM PM PM    PM                             PM PM PM PM PM PM  
  Q    E  E  E  E  E  E     E  E  Q    E  E  E  E     Q    E  E  E  E  E  E   
-------------------------|-------------------------|-------------------------|
-------------------------|-------------------------|-------------------------|
-------------------------|-------------------------|-------------------------|
--4----4--4--4--4--4--4--|--4--7--6----9--7--6-----|--0----0--0--0--0--0--0--|
--4----4--4--4--4--4--4--|--4-------------------9--|--0----0--0--0--0--0--0--|
--4----4--4--4--4--4--4--|--4----------------------|--0----0--0--0--0--0--0--|


  PM                             PM PM PM PM PM PM                             
  E  E  Q    E   Q    E     Q    E  E  E  E  E  E     E  E  E  E  E   E  Q     
-------------------------|-------------------------|--------------------------|
-------------------------|-------------------------|--------------------------|
-------------------------|-------------------------|--------------------------|
--0--7--6----------------|--0----0--0--0--0--0--0--|--2--2--2--2--2s--4--L----|
--0----------7s--9----9--|--0----0--0--0--0--0--0--|--2--2--2--2--2s--4--L----|
--0----------------------|--0----0--0--0--0--0--0--|--2--2--2--2--2s--4--L----|


  PM PM PM PM PM PM PM PM PM PM PM PM    PM                      
  E  S  S  E  S  S  E  S  S  E  S  S     E  E  Q    E   Q    E   
--------------------------------------|-------------------------|
--------------------------------------|-------------------------|
--------------------------------------|-------------------------|
--4--4--4--4--4--4--4--4--4--4--4--4--|--4--7--6----------------|
--4--4--4--4--4--4--4--4--4--4--4--4--|--4----------7s--9----9--|
--4--4--4--4--4--4--4--4--4--4--4--4--|--4----------------------|


  PM PM PM PM PM PM PM PM PM PM PM PM    PM                      
  E  S  S  E  S  S  E  S  S  E  S  S     E  E  Q    E  E  E  E   
--------------------------------------|-------------------------|
--------------------------------------|-------------------------|
--------------------------------------|-------------------------|
--4--4--4--4--4--4--4--4--4--4--4--4--|--4--7--6----9--7--6-----|
--4--4--4--4--4--4--4--4--4--4--4--4--|--4-------------------9--|
--4--4--4--4--4--4--4--4--4--4--4--4--|--4----------------------|


  PM PM PM PM PM PM PM PM PM PM PM PM    PM                      
  E  S  S  E  S  S  E  S  S  E  S  S     E  E  Q    E   Q    E   
--------------------------------------|-------------------------|
--------------------------------------|-------------------------|
--------------------------------------|-------------------------|
--0--0--0--0--0--0--0--0--0--0--0--0--|--0--7--6----------------|
--0--0--0--0--0--0--0--0--0--0--0--0--|--0----------7s--9----9--|
--0--0--0--0--0--0--0--0--0--0--0--0--|--0----------------------|


  PM PM PM PM PM PM PM PM PM PM PM PM                           
  E  S  S  E  S  S  E  S  S  E  S  S     Q    Q    E   E  Q     
--------------------------------------|------------------------|
--------------------------------------|------------------------|
--------------------------------------|------------------------|
--0--0--0--0--0--0--0--0--0--0--0--0--|--2----2----2s--4--L----|
--0--0--0--0--0--0--0--0--0--0--0--0--|--2----2----2s--4--L----|
--0--0--0--0--0--0--0--0--0--0--0--0--|--2----2----2s--4--L----|


       PM PM      PM PM                                                  
  Q    E  E  Q    E  E     Q    E  E  Q    E  E     Q.     Q    Q    E   
------------------------|------------------------|----------------------|
------------------------|------------------------|----------------------|
------------------------|------------------------|----------------------|
--0----0--0--0----0--0--|--7----7--7--2----2--2--|--4------7----6-------|
--0----0--0--0----0--0--|--7----7--7--2----2--2--|--4----------------7--|
--0----0--0--0----0--0--|--7----7--7--2----2--2--|--4-------------------|


                                PM PM PM PM PM PM                           
  E  Q    Q    E  E  E     Q    E  E  E  E  E  E     Q    E  E  Q    E  E   
------------------------|-------------------------|------------------------|
------------------------|-------------------------|------------------------|
------------------------|-------------------------|------------------------|
---------------6--------|--0----0--0--0--0--0--0--|--7----7--7--2----2--2--|
--L--4----7-------7--4--|--0----0--0--0--0--0--0--|--7----7--7--2----2--2--|
------------------------|--0----0--0--0--0--0--0--|--7----7--7--2----2--2--|


                                                       PM PM PM PM PM PM  
  Q.     Q    Q    E     E  Q    Q    E  E  E     Q    E  E  E  E  E  E   
----------------------|------------------------|-------------------------|
----------------------|------------------------|-------------------------|
----------------------|------------------------|-------------------------|
--4------7----6-------|---------------6--------|--0----0--0--0--0--0--0--|
--4----------------7--|--L--4----7-------7--4--|--0----0--0--0--0--0--0--|
--4-------------------|------------------------|--0----0--0--0--0--0--0--|


  Q    E  E  Q    E  E     Q.     Q    Q    E     E  Q    Q    E  E  E   
------------------------|----------------------|------------------------|
------------------------|----------------------|------------------------|
------------------------|----------------------|------------------------|
--7----7--7--2----2--2--|--4------7----6-------|---------------6--------|
--7----7--7--2----2--2--|--4----------------7--|--L--4----7-------7--4--|
--7----7--7--2----2--2--|--4-------------------|------------------------|


       PM PM PM PM PM PM                                                    
  Q    E  E  E  E  E  E     Q    E  E  Q    Q       Q    E  E  E  E  E  E   
-------------------------|-----------------------|-------------------------|
-------------------------|-----------------------|-------------------------|
-------------------------|-----------------------|-------------------------|
--0----0--0--0--0--0--0--|--7----7--7--2----2----|--4----4--4--4--4--4--4--|
--0----0--0--0--0--0--0--|--7----7--7--2----2----|--4----4--4--4--4--4--4--|
--0----0--0--0--0--0--0--|--7----7--7--2----2----|--4----4--4--4--4--4--4--|


  E  E  E  E  E  E  E  E     Q    E  E  E  E  E  E     E  E  E  E  E  E  E  E   
--------------------------|-------------------------|--------------------------|
--------------------------|-------------------------|--------------------------|
--------------------------|-------------------------|--------------------------|
--4--4--4--4--4--2--2--2--|--4----4--4--4--4--4--4--|--4--4--4--4--4--2--2--2--|
--4--4--4--4--4--2--2--2--|--4----4--4--4--4--4--4--|--4--4--4--4--4--2--2--2--|
--4--4--4--4--4--2--2--2--|--4----4--4--4--4--4--4--|--4--4--4--4--4--2--2--2--|


  Q    E  E  E  E  E  E     E  E  E  E  E  E  E  E     Q    E  E  E  E  E  E   
-------------------------|--------------------------|-------------------------|
-------------------------|--------------------------|-------------------------|
-------------------------|--------------------------|-------------------------|
--4----4--4--4--4--4--4--|--4--4--4--4--4--2--2--2--|--4----4--4--4--4--4--4--|
--4----4--4--4--4--4--4--|--4--4--4--4--4--2--2--2--|--4----4--4--4--4--4--4--|
--4----4--4--4--4--4--4--|--4--4--4--4--4--2--2--2--|--4----4--4--4--4--4--4--|


  E  E  E  E  E  E  E  E      Q.        Q       Q       E   
--------------------------|--------------------------------|
--------------------------|--14br------14br----14br----14--|
--------------------------|--------------------------------|
--4--4--4--4--4--4--4--4--|--------------------------------|
--4--4--4--4--4--4--4--4--|--------------------------------|
--4--4--4--4--4--4--4--4--|--------------------------------|


   H         E   E   E   E      Q.        E  H         
----------------------------|-------------------------|
--17~--------L--12--10--12--|--14br------10--7--------|
----------------------------|-------------------------|
----------------------------|-------------------------|
----------------------------|-------------------------|
----------------------------|-------------------------|


  E  E  E   E   E  E   E   E      H          H            
-------------------9--10--12--|--14b--------14br~--------|
--L--7--9--10--12-------------|--------------------------|
------------------------------|--------------------------|
------------------------------|--------------------------|
------------------------------|--------------------------|
------------------------------|--------------------------|


   E   S  S  S  S  S  S  S  S  S  S  S  S  S  S  
--14--17-14-16-14-17-14-16-14-17-14-16-14-17-14-|
------------------------------------------------|
------------------------------------------------|
------------------------------------------------|
------------------------------------------------|
------------------------------------------------|


   S  S  Q       Q      Q      E      Q     E   E   H         
--16-14---------------------------|--------------------------|
--------19br----19b----19b----17--|--14----15--14------------|
----------------------------------|----------------14--------|
----------------------------------|--------------------------|
----------------------------------|--------------------------|
----------------------------------|--------------------------|


   Q.     E  E  Q    E     E  Q    E  E   Q    E   
--/5------4--5--7----5--|--7--9----7--9--12----9--|
------------------------|-------------------------|
------------------------|-------------------------|
------------------------|-------------------------|
------------------------|-------------------------|
------------------------|-------------------------|


                    T             T      
   E   Q.       E   S  S   S   S  S  S   
--12--14b------14--17-14h-16p-14-17-14h-|
----------------------------------------|
----------------------------------------|
----------------------------------------|
----------------------------------------|
----------------------------------------|


          T             T                
   S   S  S  S   S   S  S  S  H          
--16p-14-17-14h-16p-14-17-14-17b--------|
----------------------------------------|
----------------------------------------|
----------------------------------------|
----------------------------------------|
----------------------------------------|


       T             T             T             T      
   E   S  S   S   S  S  S   S   S  S  S   S   S  S  S   
--14--17-14h-16p-14-17-14h-16p-14-17-14h-16p-14-17-14h-|
-------------------------------------------------------|
-------------------------------------------------------|
-------------------------------------------------------|
-------------------------------------------------------|
-------------------------------------------------------|


   S   S S S H.              S S  Q.       H          
--16p-14------------------|------20b------20b--------|
--------------------------|--------------------------|
--------------------------|--------------------------|
--------------------------|--------------------------|
--------------------------|--------------------------|
--------------------------|--------------------------|


                                   PM PM      PM PM                           
   Q.        E   H            Q    E  E  Q    E  E     Q    E  E  Q    E  E   
--20br------17--14\--------|--L---------------------|------------------------|
---------------------------|------------------------|------------------------|
---------------------------|------------------------|------------------------|
---------------------------|-------0--0--0----0--0--|--7----7--7--2----2--2--|
---------------------------|-------0--0--0----0--0--|--7----7--7--2----2--2--|
---------------------------|-------0--0--0----0--0--|--7----7--7--2----2--2--|


                                                       PM PM PM PM PM PM  
  Q.     Q    Q    E     E  Q    Q    E  E  E     Q    E  E  E  E  E  E   
----------------------|------------------------|-------------------------|
----------------------|------------------------|-------------------------|
----------------------|------------------------|-------------------------|
--4------7----6-------|---------------6--------|--0----0--0--0--0--0--0--|
--4----------------7--|--L--4----7-------7--4--|--0----0--0--0--0--0--0--|
--4-------------------|------------------------|--0----0--0--0--0--0--0--|


  Q    E  E  Q    E  E     Q.     Q    Q    E     E  Q    Q    E  E  E   
------------------------|----------------------|------------------------|
------------------------|----------------------|------------------------|
------------------------|----------------------|------------------------|
--7----7--7--2----2--2--|--4------7----6-------|---------------6--------|
--7----7--7--2----2--2--|--4----------------7--|--L--4----7-------7--4--|
--7----7--7--2----2--2--|--4-------------------|------------------------|


       PM PM PM PM PM PM                                                 
  Q    E  E  E  E  E  E     Q    E  E  Q    E  E     E.  H.           S  
-------------------------|------------------------|---------------------|
-------------------------|------------------------|---------------------|
-------------------------|------------------------|---------------------|
--0----0--0--0--0--0--0--|--7----7--7--2----2--2--|--4------------------|
--0----0--0--0--0--0--0--|--7----7--7--2----2--2--|--4------------------|
--0----0--0--0--0--0--0--|--7----7--7--2----2--2--|--4------------------|


                           PM PM PM PM PM PM         PM PM      PM PM  
  H.           E  E     E  E  E  E  E  E  E     Q    E  E  Q    E  E   
---------------------|-----------------------|------------------------|
---------------------|-----------------------|------------------------|
---------------------|-----------------------|------------------------|
------------------7--|--L--7--7--7--7--7--7--|--9----9--9--6----6--6--|
------------------7--|--L--7--7--7--7--7--7--|--9----9--9--6----6--6--|
------------------7--|--L--7--7--7--7--7--7--|--9----9--9--6----6--6--|


  Q    E  E  E  E  E  E     E  E  E  E  S S E  E  E     Q    E  E  E  E  E  E   
-------------------------|---------------------------|-------------------------|
-------------------------|---------------------------|-------------------------|
-------------------------|---------------------------|-------------------------|
--4----7--4--6--4--6--7--|--9--4--7--4--6-7-6--------|--4----7--4--6--4--6--7--|
--4----------------------|---------------------7--9--|--4----------------------|
--4----------------------|---------------------------|--4----------------------|


  E  E  E  E  S S E  E  E     Q    E  E  E  E  E  E   
---------------------------|-------------------------|
---------------------------|-------------------------|
---------------------------|-------------------------|
--9--4--7--4--6-7-6--------|--4----7--4--6--4--6--7--|
---------------------7--9--|--4----------------------|
---------------------------|--4----------------------|


  E  E  E  E  S S E  E  E     Q    E  E  E  E  E  E   
---------------------------|-------------------------|
---------------------------|-------------------------|
---------------------------|-------------------------|
--9--4--7--4--6-7-6--------|--4----7--4--6--4--6--7--|
---------------------7--9--|--4----------------------|
---------------------------|--4----------------------|


  E  E  E  E  S S E  Q        W                   W                 
---------------------------|-------------------|-------------------|
---------------------------|-------------------|-------------------|
---------------------------|-------------------|-------------------|
--9--4--7--4--6-7-6--------|-------------------|-------------------|
---------------------7s----|--9----------------|--L----------------|
---------------------------|-------------------|-------------------|


  W                   W                  
-------------------|-------------------||
-------------------|-------------------||
-------------------|-------------------||
-------------------|-------------------||
--L----------------|--L----------------||
-------------------|-------------------||




Duration Legend
---------------
W - whole
H - half
Q - quarter
E - 8th
S - 16th
T - 32nd
X - 64th
. - note dotted
|-n-|  - n-tuplets


Tablature Legend
----------------
L - tied note
x - dead note
g - grace note
(n) - ghost note
> - accentuded note
NH - natural harmonic
AH - artificial harmonic
TH - tapped harmonic
SH - semi harmonic
PH - pitch harmonic
h - hammer on
p - pull off
b - bend
br - bendRelease
pb - preBend
pbr - preBendRelease
brb - bendReleaseBend
\n/ - tremolo bar dip
\n - tremolo bar dive
-/n - tremolo bar Release up
/n\ - tremolo bar inverted dip
/n - tremolo bar return
-\n - tremolo bar Release down
S - shift slide
s - legato slide
/ -  slide into from below or out of upwards
\ -  slide into from above or out of downwards
~ - vibrato
W - wide vibrato
tr - trill
TP - tremolo picking
T - tapping
S - slap
P - pop
< - fade in
^ - brush up
v - brush down

            
            
Suggest correction
Creating personal tab
Creating personal tab
You can edit any tab online and save it as your Personal.

You can edit, replace or remove any tab part or add personal notes – all changes will be seen only by you.

Personal tabs can be accessed anytime from any device, even offline.
Learn more »
comments
print report bad tab
4 comments total. Showing first comments.
+1 reply
baysidefrk1234 20 Jul 22, 2007 02:47 PM

best tab of the solo

0 reply
synysterangel 10 Aug 02, 2007 06:45 PM

i dont think anyone has tabbed the harmonizing intro. maybe you did and i just looked over it but i guess that just means more work for me *sigh*

0 reply
rockon4you 84 Aug 08, 2007 08:16 PM

i dont remember if that part is harmonized lol

guest
You may want to rate the tab now too:
select rating
Wanna post a correction for this tab? Suggest correction