Oops, an error
Loading. Please wait.

Goodbye Thimble Mill Lane Bass Tab

16 views 1 this week
no commentswrite comment
1 2 3 4 5
3 more votes to show rating
add to favorites
launch autoscroll
font size
0
reset
guitar tuner
Autoscroll
slow
fast
+/-
esc
set tempo
stop
Help us to improve Ultimate-Guitar.com Take our survey!
×
Author
Difficulty
novice
Tabbed by: 6METAL6BASSIST6
E-mail: petergriffinav@gmail.com

Tuning: EADG

G|------------------------------------------------------------------------|
D|------------------------------------------------------------------------|
A|------------2-----2-----3-----5-----------------2-----2-----3-----5-----|
E|3-----------------------------------3-----------------------------------|

G|------------------------------------------------------------------------|
D|------------------------------------------------------------------------|
A|------------2-----2-----3-----5-----------------------------------2-----|
E|3-----------------------------------3-----------3-----3-----5-----------|

0:10

G|------------------------------------------------------------------------|
D|------------------------------------------------------------------4-----|
A|3-----------3-----------3-----------5-----------5-----------5-----------|
E|------------------3-----------3-----------------------5-----------------|

G|------------------------------------------------------------------------|
D|5-----------5-----------5-----------------------------5-----4-----2-----|
A|------------------5-----------5-----7-----------7-----------------------|
E|------------------------------------------------------------------------|

G|------------------------------------------------------------------------|
D|------------------------------------------------------------------4-----|
A|3-----------------------3-----------5-----------5-----------5-----------|
E|------------------3-----------3-----------------------5-----------------|

G|------------------------------------------------------------------------|
D|5-----------5-----------5-----------------------------9-----------------|
A|------------------5-----------5-----7-----------7-----------7-----5-----|
E|------------------------------------------------------------------------|

0:24

G|------------------------------------------------------------------------|
D|------------------------------------------------------------------4-----|
A|3-----------3-----------3-----------5-----------5-----------5-----------|
E|------------------3-----------3-----------------------5-----------------|

G|------------------------------------------------------------------------|
D|5-----------5-----------5-----------------------------5-----4-----2-----|
A|------------------5-----------5-----7-----------7-----------------------|
E|------------------------------------------------------------------------|

G|------------------------------------------------------------------------|
D|------------------------2-----------------------2-----------------2-----|
A|------------------3-----------3-----------3-----------------3-----------|
E|5-----------5-----------------------5-----------------5-----------------|

G|------------------------------------------------------------------------|
D|------------------4-----7-----4-----------4-----7-----------4-----7-----|
A|5-----------5-----------------------5-----------------5-----------------|
E|------------------------------------------------------------------------|

0:39

G|------------------------------------------------------------------------|
D|4-----------------2-----------------------------------------------------|
A|------------------------------------5-----4-----2-----------------7-----|
E|------------------------------------------------------5-----------------|

G|------------------------------------------------------------------------|
D|------------------------------5-----------------------7-----------------|
A|------------------------------------5-----------5-----------7-----4-----|
E|5-----------5-----3-----------------------------------------------------|

G|------------------------------------------------------------------------|
D|4-----------4-----2-----------2-----------------------------------------|
A|------------------------------------5-----4-----2-----------------7-----|
E|------------------------------------------------------5-----------------|

G|------------------------------------7-----------------------------------|
D|------------------------------5-----------------------------------------|
A|------------------------------------------------5-----------------------|
E|5-----------5-----3-----------------------------------5-----------5-----|

G|------------------------------------------------------|
D|------------------------------------------------------|
A|------------------------------------------------------|
E|5-----5-----5-----5-----5-----5-----5-----5-----5-----|

0:57

G|------------------------------------------------------------------------|
D|------------------------------------------------------------------4-----|
A|3-----------3-----------3-----------5-----------5-----------5-----------|
E|------------------3-----------3-----------------------5-----------------|

G|------------------------------------------------------------------------|
D|5-----------5-----------5-----------------------------5-----4-----2-----|
A|------------------5-----------5-----7-----------7-----------------------|
E|------------------------------------------------------------------------|

G|------------------------------------------------------------------------|
D|------------------------------------------------------------------4-----|
A|3-----------3-----------3-----------5-----------5-----------5-----------|
E|------------------3-----------3-----------------------5-----------------|

G|------------------------------------------------------------------------|
D|5-----------5-----------5-----------------------------9-----------------|
A|------------------5-----------5-----7-----------7-----------7-----5-----|
E|------------------------------------------------------------------------|

1:14

G|------------------------------------------------------------------------|
D|------------------------------------------------------------------4-----|
A|3-----------3-----------3-----------5-----------5-----------5-----------|
E|------------------3-----------3-----------------------5-----------------|

G|------------------------------------------------------------------------|
D|5-----------5-----------5-----------------------------5-----4-----2-----|
A|------------------5-----------5-----7-----------7-----------------------|
E|------------------------------------------------------------------------|

G|------------------------------------------------------------------------|
D|------------------------2-----------------------2-----------------2-----|
A|------------------3-----------3-----------3-----------------3-----------|
E|5-----------5-----------------------5-----------------5-----------------|

G|------------------------------------------------------------------------|
D|------------------4-----7-----4-----------4-----7-----------4-----7-----|
A|5-----------5-----------------------5-----------------5-----------------|
E|------------------------------------------------------------------------|

1:29

G|------------------------------------------------------------------------|
D|4-----------------2-----------------------------------------------------|
A|------------------------------------5-----4-----2-----------------7-----|
E|------------------------------------------------------5-----------------|

G|------------------------------------------------------------------------|
D|------------------------------5-----------------------7-----------------|
A|------------------------------------5-----------5-----------7-----4-----|
E|5-----------5-----3-----------------------------------------------------|

G|------------------------------------------------------------------------|
D|4-----------4-----2-----------2-----------------------------------------|
A|------------------------------------5-----4-----2-----------------7-----|
E|------------------------------------------------------5-----------------|

G|------------------------------------------------------------------------|
D|------------------------------5-----------------------------------------|
A|------------------------------------5-----------5-----------------------|
E|5-----------5-----3-----------------------------------5-----------5-----|

G|------------------------------------------------------|
D|------------------------------------------------------|
A|------------------------------------------------------|
E|5-----5-----5-----5-----5-----5-----5-----5-----5-----|

1:49

G|------------------------------------------------------------------------|
D|4-----------------------4-----------------------------------------------|
A|------------------4-----------------4-----------------------4-----------|
E|------------------------------------------------------4-----------------|

G|------------------------4-----------------------------------4-----------|
D|------------------4-----------4-----------------------4-----------------|
A|2-----------------------------------2-----------------------------------|
E|------------------------------------------------------------------------|

G|------------------------------------------------------------------------|
D|4-----------------------4-----------------------------------------------|
A|------------------4-----------------4-----------------------4-----------|
E|------------------------------------------------------4-----------------|

G|------------------------------------------------------------4-----------|
D|------4-----7-----------4-----7-----------------------2-----------2-----|
A|5-----------------5-----------------------4-----5-----------------------|
E|------------------------------------5-----------------------------------|

2:03

G|------------------------------------------------------------------------|
D|------------------------------------------------------------------4-----|
A|3-----------3-----------3-----------5-----------5-----------5-----------|
E|------------------3-----------3-----------------------5-----------------|

G|------------------------------------------------------------------------|
D|5-----------5-----------5-----------------------------5-----4-----2-----|
A|------------------5-----------5-----7-----------7-----------------------|
E|------------------------------------------------------------------------|

G|------------------------------------------------------------------------|
D|------------------------------------------------------------------4-----|
A|3-----------3-----------3-----------5-----------5-----------5-----------|
E|------------------3-----------3-----------------------5-----------------|

G|------------------------------------------------------------------------|
D|5-----------5-----------5-----------------------------9-----------------|
A|------------------5-----------5-----7-----------7-----------7-----5-----|
E|------------------------------------------------------------------------|

2:19

G|------------------------------------------------------------------------|
D|------------------------------------------------------------------4-----|
A|3-----------3-----------3-----------5-----------5-----------5-----------|
E|------------------3-----------3-----------------------5-----------------|

G|------------------------------------------------------------------------|
D|5-----------5-----------5-----------------------------5-----4-----2-----|
A|------------------5-----------5-----7-----------7-----------------------|
E|------------------------------------------------------------------------|

G|------------------------------------------------------------------------|
D|------------------------2-----------------------2-----------------2-----|
A|------------------3-----------3-----------3-----------------3-----------|
E|5-----------5-----------------------5-----------------5-----------------|

G|------------------------------------------------------------------------|
D|------------------4-----7-----4-----------4-----7-----------4-----7-----|
A|5-----------5-----------------------5-----------------5-----------------|
E|------------------------------------------------------------------------|

2:35

G|------------------------------------------------------------------------|
D|4-----------------2-----------------------------------------------------|
A|------------------------------------5-----4-----2-----------------7-----|
E|------------------------------------------------------5-----------------|

G|------------------------------------------------------------------------|
D|------------------------------5-----------------------7-----------------|
A|------------------------------------5-----------5-----------7-----4-----|
E|5-----------5-----3-----------------------------------------------------|

G|------------------------------------------------------------------------|
D|4-----------4-----2-----------2-----------------------------------------|
A|------------------------------------5-----4-----2-----------------7-----|
E|------------------------------------------------------5-----------------|

G|------------------------------------------------------------------------|
D|------------------------------5-----------------------------------------|
A|------------------------------------5-----------5-----------------------|
E|5-----------5-----3-----------------------------------5-----5-----5-----|

G|------------------------------------------------------|
D|------------------------------------------------------|
A|------------------------------------------------------|
E|5-----5-----5-----5-----5-----5-----5-----5-----5-----|

2:53

G|------------------------------------------------------------------------|
D|4-----------------2-----------------------------------------------------|
A|------------------------------------5-----4-----2-----------------7-----|
E|------------------------------------------------------5-----------------|

G|------------------------------------------------------------------------|
D|------------------------------5-----------------------7-----------------|
A|------------------------------------5-----------5-----------7-----4-----|
E|5-----------5-----3-----------------------------------------------------|

G|------------------------------------------------------------------------|
D|4-----------4-----2-----------2-----------------------------------------|
A|------------------------------------5-----4-----2-----------------7-----|
E|------------------------------------------------------5-----------------|

G|------------------------------------------------------------------------|
D|------------------------------5-----------------------------------------|
A|------------------------------------5-----------5-----------------------|
E|5-----------5-----3-----------------------------------5-----5-----5-----|

G|------------------------------------------------------|
D|------------------------------------------------------| fades out here.
A|------------------------------------------------------|
E|5-----5-----5-----5-----5-----5-----5-----5-----5-----|
Suggest correction
Give kudos to tab author, rate the tab!
1 2 3 4 5
comments
print report bad tab
guest
You may want to rate the tab now too:
select rating
Wanna post a correction for this tab? Suggest correction