Oops, an error
Loading. Please wait.

Der Letzte Tanz Tab

5,137 views 1 this week
no commentswrite comment
1 2 3 4 5
please rate
add to favorites
launch autoscroll
font size
0
reset
how to read this tab
guitar tuner
Autoscroll
slow
fast
+/-
esc
set tempo
stop
Help us to improve Ultimate-Guitar.com Take our survey!
×
Contributor
Difficulty
Capo
intermediate
3rd fret
Schandmaul - Der Letzte Tanz:

Wow meine ersten Tabs ^^
Die Melodie wird eigentlich von den Dudelsäcken gespielt, aber 
manchmal klimpert die Gitarre auch ein paar töne zwischen.
Die Akkorde und Text sind von:
"http://ultimate-guitar.com/tabs/s/schandmaul/der_letzte_tanz_crd.htm"
Alle Akkorde mit Capo: 3. Bund!
Also bitte da bedanken.


Intro:

2X

e|-10------------------------8--10--11--10----8----|--10-----------------------------------------|
B|-------8----11----8----11------------------------|--------8----11----8----11----10----8--------|
G|-------------------------------------------------|---------------------------------------------|
D|-------------------------------------------------|---------------------------------------------|
A|-------------------------------------------------|---------------------------------------------|
E|-------------------------------------------------|---------------------------------------------|


e|-10------------------------8--10--11--10----8----|--10----8------------------------------------|
B|-------8----11----8----11------------------------|-----------11--10----11----8--------8--------|
G|-------------------------------------------------|---------------------------------------------|
D|-------------------------------------------------|---------------------------------------------|
A|-------------------------------------------------|---------------------------------------------|
E|-------------------------------------------------|---------------------------------------------|



Während Stropfe:

e|-------------------------10----11----10----------|---------------------------------------------|
B|-8--------10--11----8----------------------------|--8--------10--11----8----11----10----8------|
G|-------------------------------------------------|---------------------------------------------|
D|-------------------------------------------------|---------------------------------------------|
A|-------------------------------------------------|---------------------------------------------|
E|-------------------------------------------------|---------------------------------------------|

    e               C   G     D
Mit schmetterndem Getön', Fanfaren und Trompeten,
   e                C       G     D
am Hof das Fest des Frühlings. Im Wind die Fahnen wehten.
      e                    C      G       D
Nebst Speis und Trank und viel Gesang zur Freud der Menschen all,
e              C     G         D
ein Turnier im Lanzenstoß, der Preis war kolossal.



1X das Muster vom Intro:


        e                C    G              D
Wer als letzter auf dem Rosse - derweil die anderen alle liegen -
         e                   C    G        D
darf mit des Königs liebster Tochter beim Tanz die Glieder biegen.
   e             C        G       D
So kamen sie von nah und fern und stürzten ins Gefecht,
e               C     G             D
denn für diese tolle Frau waren so manche Schmerzen recht.


1X das Muster vom Intro:


    e                C   G          D
Als sich ein junger Edelmann schon fast als Sieger wähnte,
    e                  C    G              D
sah er den schwarzen Ritter an, wie er am schwarzen Pferde lehnte.
           e             C       G D
"Willst Du kämpfen oder warten!?" schrie der Edelmann
    e                  C  G         D
und ehe er es sich versah spürte er wie man fliegen kann.


1X das Muster vom Intro:


|: a          e                  G           D
|: Der letzte Tanz! Sie ist so zart wie die Rose.
1. a          e                    G              D   :|
1. Der letzte Tanz! Es berührt sie sacht der Zeitlose.:|
2. a          e                    G         D    Em
2. Der letzte Tanz! Es berührt sie sacht der Zeitlose.


2X das Muster vom Intro:


    e               C      G              D
So war es denn geschehen,    der schwarze Ritter war der Sieger.
    e                   C        G            D
"So will ich denn den Preis mir holen." sagte er und kniete sich nieder.
          e            C   G          D
Schwarze Wolken zogen auf,    als die Musik zum Tanze rief.
    e                   C        G              D
Das Volk blieb nunmehr angstvoll stehen, als es gewahrte, was dort lief!


1X das Muster vom Intro:


|: a          e                  G           D
|: Der letzte Tanz! Sie ist so zart wie die Rose.
1. a          e                    G              D   :|
1. Der letzte Tanz! Es berührt sie sacht der Zeitlose.:|
2. a          e                    G         D    Em
2. Der letzte Tanz! Es berührt sie sacht der Zeitlose.


4X das Muster vom Intro:


|: a          e                  G           D
|: Der letzte Tanz! Sie ist so zart wie die Rose.
1. a          e                    G              D   :|
1. Der letzte Tanz! Es berührt sie sacht der Zeitlose.:|
2. a          e                    G         D    Em
2. Der letzte Tanz! Es berührt sie sacht der Zeitlose.
comments
We did not receive enough feedback on this tab! Please rate:
print report bad tab
1 2 3 4 5
I want to post or [tab]
guest
You may want to rate the tab now too:
select rating
Please do not post tabs as comments. Select "correction" instead!