Oops, an error
Loading. Please wait.

Der Wandersmann Tab

version 1
version 1

Whole song

Interactive

19,779 views 21 this week
1 commentread comment
1 2 3 4 5
accurate
x 7
add to favorites
launch autoscroll
font size
0
reset
how to read this tab
guitar tuner
Autoscroll
slow
fast
+/-
esc
set tempo
stop
Help us to improve Ultimate-Guitar.com Take our survey!
×
Difficulty
Capo
novice
2nd fret
Schandmaul - Der Wandersmann

Capo 2nd fret

Intro 2x:

     C                            G                Dm
E |--0-------------------------|----------------|--1--------------1----------|
B |-----------------1----------|--3--1--0-------|-----------3----------------|
G |-----------0----------------|-----------0----|--------2-----------2-------|
D |--------2-----------2-------|----------------|--0-----------0-------------|
A |--3-----------3-------------|----------------|----------------------------|
E |----------------------------|--3-------------|----------------------------|

  Am               Dm                           C                G
--0-------------|--1--------------1----------|--0-------------|----------------|
-----------1----|-----------3----------------|-----------1----|--0-------------|
--------2-------|--------2-----------2-------|--------0-------|--0-------------|
-----2----------|--0-----------0-------------|-----2----------|----------------|
--0-------------|----------------------------|--3-------------|-----0--2--0----|
----------------|----------------------------|----------------|--3-------------|

  C                                                              
--0-------------|
--1-------------|
----------------|
--------2-------|
--3-------------|
----------------|

   C               G
Es ist geleert das erste Fass,
      Dm            Am
kommt Bruederlein erzaehlt noch was
    Dm           C
von euren weiten Reisen.
G                    C
Sprecht und hebt das Glas!"


    C             G           Dm             Am
Der alte baertige Wandersmann faengt mit der Geschichte an,
    Dm                 C                   G              C
als einst von fern das Jaghorn schallt und Jaeger hetzten durch den Wald.
     Dm/F          Fm/Ab Am*          C                    G
"Der Hirsch drohte zu entkommen, doch rannte ich schneller als das Tier,
            Dm/F     Fm/Ab Am*          C           G     Am
mit blosser Faust niederge-rungen - das Geweih hier als Beweis dafuer!"

 
    C             G           Dm             Am
Der alte baertige Wandersmann faengt mit der Geschichte an,
    Dm                  C                  G                 C
als einst ein Sturm das Meer zerwuehlt und Mann und Maus vom Schiffsdeck spuelt.
     Dm/F       Fm/Ab Am*         C            G
"Das Schiff drohte zu sinken, die Segel rissen wie Papier.
          Dm/F     Fm/Ab      Am*                     C      G     Am
Ich holte Luft und bliess den Sturm fort - das Stueck Leinen als Beweis dafuer!"


   C               G
Es ist geleert das erste Fass,
      Dm            Am
kommt Bruederlein erzaehlt noch was
    Dm           C
von euren weiten Reisen.
G                    C
Sprecht und hebt das Glas!"


    C             G           Dm             Am
Der alte baertige Wandersmann faengt mit der Geschichte an,
    Dm                  C                  G            C
Als einst der Feind die Stadt besetzt, das Katapult das Tor zerfetzt.
Dm/F         Fm/Ab    Am*             C                     G
"Ich schlich mich von hinten an, mein Kampfschrei klang wie 1000 Mann.
            Dm/F     Fm/Ab     Am*        C         G     Am
Sie rannten fort wie scheues Getier - der Helm hier als Beweis dafuer!"


    C             G           Dm             Am
Der alte baertige Wandersmann faengt mit der Geschichte an,
    Dm                C                G             C
als einst der Juengste Tag anbrach und alles von dem Ende sprach.
    Dm/F    Fm/Ab   Am*              C               G
"Es leckten Flammen in die Welt, als offen stand die Hoellentuer.
               Dm/F   Fm/Ab        Am*         C          G     Am
Ich schlug sie zu und mein Schloss haelt - der Schluessel als Beweis dafuer!"


   C               G
Es ist geleert das erste Fass,
      Dm            Am
kommt Bruederlein erzaehlt noch was
    Dm           C
von euren weiten Reisen.
G                    C
Sprecht und hebt das Glas!"

     C                G                   Dm              Am
"Ich hab erzaehlt von meiner Jagd und wie ich den Sturm bezwungen hab',
    Dm             C                      G              C (I)
wie ich den Boesen Feind vertrieb und der Deckel auf der Hoelle blieb.
    F                Em               F              C          G
Nun rollt das zweite Fass herein, wir wollen nunmehr gluecklich sein
F                  Em               F                  G
 und wenn nicht zu voll der Ranzen,  froehlich auf den Tischen tanzen...!"

4x:
    C                    G
"Es fliesst der Wein, es fliesst das Bier!
F               G
hoch die Kruege trinken wir!"

(I):
   C                F                Em               F
E--0-------------|--------1-------|--------0-------|--------1-------|
B-----------0----|--------1-------|--------0-------|--------1-------|
G--------0-------|--------2-------|--------0-------|--------2-------|
D-----2----------|-----3-----3----|-----2-----0----|-----3-----3----|
A--3-------------|----------------|----------------|----------------|
E----------------|--1-------------|--0-------------|--1-------------|

  C     G          F                Em               F
--0--------3----|--------1-------|--------0-------|--------1-------|
--1--------0----|--------1-------|--------0-------|--------1-------|
--0--0-----0----|--------2-------|--------0-------|--------2-------|
----------------|-----3-----3----|-----2-----0----|-----3-----3----|
--3-------------|----------------|----------------|----------------|
--------3-------|--1-------------|--0-------------|--1-------------|

 G                 C                            G
--------3-------|--0-------------------------|--3-------------------------|
--------0-------|-----------------1----------|-----------------0----------|
--------0-------|-----------0----------------|-----------0----------------|
-----0-----0----|--------2-----------2-------|----------------------------|
----------------|--3-----------3-------------|--------2-----------2-------|
--3-------------|----------------------------|--3-----------3-------------|

  F                            G
--1-------------------------|--3-------------------------|
-----------------1----------|-----------------0----------|
-----------2----------------|-----------0----------------|
----------------------------|----------------------------|
--------3-----------3-------|--------2-----------2-------|
--1-----------1-------------|--3-----------3-------------|



   Dm/F Fm/Ab  Am*

E|--1----4-----5---
B|--3----6-----5---
G|--2----5-----5---
D|--3----6-----X---
A|--X----X-----0---
E|--X----X-----X---

Tab arranged by Mason
Suggest correction
comments
print report bad tab
1 comment total.
0 reply
Fight_Fate 171 wrote on February 12 2016, 05:32 am

play it without capo.. sounds much better

guest
You may want to rate the tab now too:
select rating
Please do not post tabs as comments. Select "correction" instead!