Oops, an error
Loading. Please wait.

Die Braut Tab

5,306 views 6 this week
no commentswrite comment
1 2 3 4 5
please rate
add to favorites
launch autoscroll
font size
0
reset
how to read this tab
guitar tuner
Autoscroll
slow
fast
+/-
esc
set tempo
stop
Help us to improve Ultimate-Guitar.com Take our survey!
×
Author
Die Braut

Intro:

Em Am D Hm
Em Am D (D)|x2

(Intro-Melodie:)

    GEIGE
    E.    E.     E  Q.           E          Q.           E  H
||---------------------------------------|--------------------------------------|
||o-5-----7------8--7------------5-------|--------------------------------------|
||---------------------------------------|--7------------5--4-------------------|
||---------------------------------------|--------------------------------------|
||o--------------------------------------|--------------------------------------|
||---------------------------------------|--------------------------------------|
|
|   FLÖTE
|                                |--3--|
|   e   e     e  e  e   S  S  E  S  S  S    E   S  S  e  e  e  S  S  S  S  S  S
||---------------------------------------|--------------------------------------|
||o----12----12-12-12--10-12-13-12-13-12-|-10--------10-10-10----10-12-10-------|
||--9------------------------------------|-----11-12----------12----------12-11-|
||---------------------------------------|--------------------------------------|
||o--------------------------------------|--------------------------------------|
||---------------------------------------|--------------------------------------|


                                        1.
  E.    E.     E  Q.           E          W
|-----------------5--------------------|-----------------------------------------||
|-5-----7------8---------------8-------|--7-------------------------------------o||
|--------------------------------------|-----------------------------------------||
|--------------------------------------|-----------------------------------------||
|--------------------------------------|----------------------------------------o||
|--------------------------------------|-----------------------------------------||
|
|                              |--3--|
| e   e     e  e  e   S  S  E  S  S  S    E  S  S  e  e  e  S  S  S  S  S  S
|--------------------------------------|-------------------------10--------------||
|----12----12-12-12--10-12-13-12-13-12-|-10-------10-10-10-12-13----13-12-10----o||
|-9------------------------------------|----11-12--------------------------------||
|--------------------------------------|-----------------------------------------||
|--------------------------------------|----------------------------------------o||
|--------------------------------------|-----------------------------------------||


  2.
   W
|-------|
|--7----|
|-------|
|-------|
|-------|
|-------|
|
|  W
|-------|
|-10----|
|-------|
|-------|
|-------|
|-------|


Strophe:

    G                   (G)
Ein Schatten huscht dort unbemerkt
D                 C
fort durch Königs Gärten,
   Em               Am
passiert die Pforte unverwehrt,
     D                 Em   (G)
wird eins dann mit der Nacht. 

    G               (G)
Der Königssohn, der sich verzehrt,
     D             C
eilt hin zu der Verehrten,
    Em                Am
die ihn die Kunst der Liebe lehrt,
    D                Em
die ihn so glücklich macht. 

Interlude:

Em Am D Hm
Em Am D (D)

Strophe:

    G               (G)
Mit jedem Tag liebt er sie mehr
    D           C
und hütet das Geheimnis.
    Em            Am
Der täglich neuen Wiederkehr
    D             Em (G)
der Quelle seiner Lust. 

     G                   (G)
Doch bald beugt sie sich tränenschwer
    D                 C
und ahnt schon das Verderbnis
    Em            Am
des neuen Lebens, das sie schwer trägt
D           Em
unter ihrer Brust. 

Refrain:

      Hm              F#m
Meine Braut sollst du sein, 
       A             E
golden wie der Sonnenschein,
       Hm             F#m
so wie ich dich einst sah 
      A                 E
ein Geschöpf dem Himmel nah.
      Hm              F#m
Meine Braut sollst du sein, 
       A             E
golden wie der Sonnenschein,
        C#m              Hm
und wir fliegen fort von hier.

Interlude:

F#m Hm E C#m
F#m Hm E (E) |x2
D A

Strophe:

    E              G
"In Samt und Seide sollst Du geh'n,
    D                   C
zur Braut will ich Dich nehmen.
    Em         Am
Der Vater wird erhör'n mein Fleh'n",
D                   Em (G)
spricht er und eilt fort. 

    G               (G)
Der König hört das, was gescheh'n
    D                  C
und laut erklingt sein Hönen.
   Em                  Am
Er straft den Sohn für das Vergeh'n 
    D              Em
und sperrt ihn ein sofort.

Refrain:

      Hm              F#m
Meine Braut sollst du sein, 
       A             E
golden wie der Sonnenschein,
       Hm             F#m
so wie ich dich einst sah 
      A                 E
ein Geschöpf dem Himmel nah.
      Hm              F#m
Meine Braut sollst du sein, 
       A             E
golden wie der Sonnenschein,
        C#m              Hm
und wir fliegen fort von hier.

Interlude:

F#m C#m F#m E

Strophe:

F#m                       C#m  
Des Königs Henker, der da schleicht 
                     F#m                             
im eisigen Hauch der Nacht .
                      E
Als er die holde Maid erreicht, 
                   F#m 
ist sie nie mehr erwacht...
C#m                  F#m     E  
- ist sie nie mehr erwacht...

-F#m-

      Hm              F#m
Meine Braut sollst du sein, 
       A             E
golden wie der Sonnenschein,
       Hm             F#m
so wie ich dich einst sah 
      A                 E
ein Geschöpf dem Himmel nah.
      Hm              F#m
Meine Braut sollst du sein, 
       A             E
golden wie der Sonnenschein,
        C#m              Hm
und wir fliegen fort von hier.

Outro:

Refrain (Intrumental)

(Outro-Melodie:)

    E E E E  Q.   E    E. E. E  E. E. E   E E E E  Q.   E   E.  E. E E.  E. E
||----------------7-|-------------------|---------------7-|-9--10--9-7--------|
||o-----7-9-10------|-10--9--7-10--9----|-----7-9-10------|-------------10--9
||--7-9-------------|-----------------9-|-7-9-------------|-------------------|
||------------------|-------------------|-----------------|-------------------|
||o-----------------|-------------------|-----------------|-------------------|
||------------------|-------------------|-----------------|-------------------|

  H.      E  E    E. E. E E.  E. E   H.      E E   W
|-7------------|-----7--9-7--------|-------------|-------||
|-----------10-|-10----------10--9-|-9-------7---|-7----o||
|--------------|-------------------|-----------9-|-------||
|--------------|-------------------|-------------|-------||
|--------------|-------------------|-------------|------o||
|--------------|-------------------|-------------|-------||

e-mail: spike23@ymail.com
Suggest correction
Give kudos to tab author, rate the tab!
1 2 3 4 5
comments
print report bad tab
guest
You may want to rate the tab now too:
select rating
Please do not post tabs as comments. Select "correction" instead!