Oops, an error
Loading. Please wait.

Frei Tab

version 1
version 1

Intro

1,310 views 1 this week
no commentswrite comment
1 2 3 4 5
3 more votes to show rating
add to favorites
launch autoscroll
font size
0
reset
how to read this tab
guitar tuner
Autoscroll
slow
fast
+/-
esc
set tempo
stop
Help us to improve Ultimate-Guitar.com Take our survey!
×
This is my first tab so please dont be that hard =)
It's the intro and the first singing part...
I know its not perfect cause it was a hap.

2x intro


e----0--0--0----------0--1--0---------------0--0--0---3--1--0-------------|
h---1--1--1--1--0--3----------3--0--3-----1--1--1--1----------3--1--0-----|
g--2-----------------------------------2----------------------------------|
D-------------------------------------------------------------------------|
A-------------------------------------------------------------------------|
E-------------------------------------------------------------------------|

again one time with text:
Ich hoffe und ich lache,
ich laufe und ich lebe,
ich hoffe und ich lache, und ich laufe und ich bin frei

at the last time the end is a bit different.. :

e------0--0--0---------0--1--0--------------0--0--0--0--0--0-1--0----|
h----1--1--1--1--0--3----------3--0--0----1--1--1--1-----------------|
g--2------------------------------------2----------------------------|
D--------------------------------------------------------------------|

Ich hoffe und ich lache,
ich laufe und ich lebe,
ich hoffe und ich lache, und ich laufe und ich bin FREI

so this was it...
is there are any mistakes pleas correct me =)
Suggest correction
Give kudos to tab author, rate the tab!
1 2 3 4 5
comments
print report bad tab
guest
You may want to rate the tab now too:
select rating
Wanna post a correction for this tab? Suggest correction