Oops, an error
Loading. Please wait.

Willst Du Tab

version 1
version 1

Whole song

Interactive

37,327 views 87 this week
3 commentsread comments
1 2 3 4 5
excellent!
x 5
add to favorites
launch autoscroll
font size
0
reset
how to read this tab
guitar tuner
Tab Pro tools
  • play this tab
  • loop segment
  • change instrument
  • show fretboard
  • metronome
×
Best way to learn
"Willst Du"
Autoscroll
slow
fast
+/-
esc
set tempo
stop
Contributor
Da hier nur die Akkorde zu finden sind hab ich mal Gedacht ich hör mir das raus ... 
Hier ist also für alle Suchenden das äh ... "Hoffentlich-Original" so wie Martin es spielt.

Da es schon einen guten Tab für die Akkordfolge gibt hab ich die gerade übernommen. 
Leider weiß ich nicht wer die Akkorde rausgehört hat. Trotzdem vielen dank!!!

Takt: 4/4

Verse:
    Em        Em9       G             C
E||-----7---|-----7---|-------------|-8--------||
H||-----8---|-----8---|-------12----|---8------||
G||-----9---|---9---9-|-------12----|-----9----||
D||---9-----|---------|----12----12-|-------10-||
A||-7-----7-|-9-------|-10----------|----------||
E||---------|---------|-------------|-8--------||
    1 2 3 4...
    G         H7        Em        C
E||-----3---|-----2---|---------|---------------||
H||-----0---|-----0---|-----0---|-0h1-----------||
G||---0---0-|---2---2-|-----0---|-----0-------0-||
D||---------|---------|---2---2-|---------2-----||
A||---------|-2-------|---------|-3-------------||
E||-3-------|---------|-0-------|---------------||
                                  1 + 2 + 3 + 4   
    G         D         En        C
E||-----3---|-----2---|---------|---------------||
H||-----0---|-----3---|-----0---|-0h1-----------||
G||---0---0-|---2---2-|-------0-|-----0-------0-||
D||---------|-0-------|---2-----|---------2-----||
A||---------|---------|---------|-3-------------||
E||-3-------|---------|-0-------|---------------||
                                  1 + 2 + 3 + 4
    G         D         G         G
E||-----3---|-----2---|-------3-|---------||
H||-----0---|-----3---|-----3---|-3-------||
G||---0---0-|---2---2-|---0-----|---0-----||
D||---------|-0-------|---------|---------||
A||---------|---------|---------|---------||
E||-3-------|---------|-3-------|-----3-2-|| 
(und wieder von vorn...)



Hier noch der Chorus (wie gesagt übernommen von jemand anderem):
Em         C   G        D   Em         C     G        D
Sieh Du Schöne was ich habe Willst Du diesen Ring von mir
Em         Am    C        D   Em     Am     C  D   (G)
Streif ihn über und dann sage Ja, fortan gehör ich Dir!

Am besten ihr Endet den Song damit:
E||-----3---|-----2---|-------3-|---------|-0-||
H||-----0---|-----3---|-----3---|-3-------|-0-||
G||---0---0-|---2---2-|---0-----|---0-----|-0-||
D||---------|-0-------|---------|---------|-2-||
A||---------|---------|---------|---------|-2-||
E||-3-------|---------|-3-------|-----3-2-|-0-||
... dir.    

So das wars, wenn ihr Verbesserungsvorschläge oder so habt, 
bitte eine mail an knopf-im-ohr@web.de
comments
print report bad tab
3 comments total.
0 reply
blackbird88 wrote on January 14 2010, 06:21 am

excelent =)

0 reply
blackbird0589 wrote on September 30 2011, 10:17 am

i think first em9 chord on a-string have to be 9th fret!
greetz

0 reply
Schdaiff wrote on January 12 2012, 10:43 am, edited on March 11 2014, 12:26 pm

sry yeah i missed the right key its a fis

-> ok i corrected it with the new edit function, now it should be right

I want to post or [tab]
guest
You may want to rate the tab now too:
select rating
Please do not post tabs as comments. Select "correction" instead!