Oops, an error
Loading. Please wait.

Dein Song Tab

70 views 6 this week
no commentswrite comment
1 2 3 4 5
3 more votes to show rating
add to favorites
launch autoscroll
font size
0
reset
how to read this tab
guitar tuner
Autoscroll
slow
fast
+/-
esc
set tempo
stop
Help us to improve Ultimate-Guitar.com Take our survey!
×
[Intro]
  1 + 2 + 3 + 4 + 1 + 2 + 3 + 4 + 1 + 2 + 3 + 4 + 1 + 2 + 3 + 4 + 
e|---------------------------------------------------------------------------|
B|---------------------------------------------------------------------------|
G|---------------------------------------------------------------------------|
D|----4---4---4-----4---4-----4-------0---0---0-----0---0-----0--------------|
A|2-----2---2---2-5---5-----5---5--------------------------------------------|
E|--------------------------------3-----3---3---3-5---5-----5---5------------|

[Main Riff]
  1 + 2 + 3 + 4 + 1 + 2 + 3 + 4 + 1 + 2 + 3 + 4 + 1 + 2 + 3 + 4 + 
e|---------------------------------------------------------------------------|
B|---------------------------------------------------------------------------|
G|---------------------------------------------------------------------------|
D|----4---4---4-----4---4-----4-------0---0---0-----0---0-----0--------------|
A|2-----2---2---2-5---5-----5---5--------------------------------------------|
E|--------------------------------3-----3---3---3-5---5-----5---5------------|

  1 + 2 + 3 + 4 + 1 + 2 + 3 + 4 + 1 + 2 + 3 + 4 + 1 + 2 + 3 + 4 + 
e|---------------------------------------------------------------------------|
B|---------------------------------------------------------------------------|
G|---------------------------------------------------------------------------|
D|----4---4---4-----4---4-----4-------0---0---0-----0---0-----0--------------|
A|2-----2---2---2-5---5-----5---5--------------------------------------------|
E|--------------------------------3-----3---3---3-5---5-----5---5------------|

  1 + 2 + 3 + 4 + 1 + 2 + 3 + 4 + 1 + 2 + 3 + 4 + 1 + 2 + 3 + 4 + 
e|---------------------------------------------------------------------------|
B|---------------------------------------------------------------------------| 
G|---------------------------------------------------------------------------|
D|----0---0---0-----------------------4---4---4-----4---4-----4--------------|
A|------------------2---2-----2---2-----2---2---2-5---5-----5---5------------|
E|3-----3---3---3-0---0-----0---0--------------------------------------------|

  1 + 2 + 3 + 4 + 1 + 2 + 3 + 4 + 1 + 2 + 3 + 4 + 1 + 2 + 3 + 4 + 
e|---------------------------------------------------------------------------|
B|---------------------------------------------------------------------------| 
G|---------------------------------------------------------------------------|
D|----0---0---0-----------------------4---4---4-----4---4-----4--------------|
A|------------------2---2-----2---2-----2---2---2-5---5-----5---5------------|
E|3-----3---3---3-0---0-----0---0--------------------------------------------|

  1 + 2 + 3 + 4 + 1 + 2 + 3 + 4 + 1 + 2 + 3 + 4 + 1 + 2 + 3 + 4 + 
e|---------------------------------------------------------------------------|
B|---------------------------------------------------------------------------| 
G|----------------0----------------------------------------------------------|
D|----0---0---0---2----------------------------------------------------------|
A|----------------2----------------------------------------------------------|
E|3-----3---3---3-0----------------------------------------------------------|

(Repeat)
(Then only play the first part of the riff for the rest of the song)
Suggest correction
Give kudos to tab author, rate the tab!
1 2 3 4 5
comments
print report bad tab
guest
You may want to rate the tab now too:
select rating
Wanna post a correction for this tab? Suggest correction