Oops, an error
Loading. Please wait.

Keep Your Water chords

19 views 1 this week
no commentswrite comment
1 2 3 4 5
3 more votes to show rating
add to favorites
×
Save as Personal and add changes to this tab that will be seen only by you. Learn more ›
×
You can save this tab as Personal to edit and correct it or add notes. All changes will be seen only by you. Learn more »
launch autoscroll
font size
0
reset
transpose
0
reset
simplify chords
display chords
guitar tuner
edit
Autoscroll
slow
fast
+/-
esc
set tempo
stop
Author
Strumming
There is no strumming pattern for this song yet. and get +5 IQ
[Intro]
Gmaj7    A7
Riff 1
e|-----------------|
B|-----------------|
G|-----------------|
D|-----------------|
A|-------2-0---0---|
E|-0-2-3-----2---0-|

[Verse]
Gmaj7
Shut your mouth, boy
Keep your water
       A7
Think harder
Convinced you can solve it all
Gmaj7
Close your eyes, boy
                                        A7
It's bound to change, it's bound to the two of you
Riff 1
[Chorus]
Gmaj7                           D6
And if its not, I'll make it change for you

             A7                                     D6
We'll try to keep right, keep right, keep right
Cherry-pink star
  A7
Keep right, keep right, keep right
Riff 1
[Verse]
  Gmaj7
Leave your dreams, boy
They wear you out
                A7
They might do good for a while
But you expect too much
 Gmaj7
Think it over
Again
     A7
Again
Riff 1
[Chorus]
 Gmaj7                            D6
And if you can't, I'll think it through for you
             A7                                     D6
I'll try to keep right, keep right, keep right

Cherry-pink star
  A7
Keep right, keep right, keep right
Riff 2
e|---------------------|
B|---------------------|
G|-----------------0---|
D|-4-0---2-3---0-4---0-|
A|-----0-----2---------|
E|---------------------|

[Outro]
e|-7--------|
B|-7--------|
G|-0--------|
D|-x--------|
A|-0--------|
E|-x--------|

And when it's over

e|-6--------|
B|-7--------|
G|-x--------|
D|-x--------|
A|-0--------|
E|-x--------|

Your list is in tatters

e|-7--------|
B|-7--------|
G|----------|
D|-x--------|
A|-0--------|
E|-x--------|
                                  D6
You'll see nothing is wasted at all

[Solo]
Gmaj7    A7
Riff 1
Gmaj7    A7
Riff 3
e|-----------------|
B|-----------------|
G|-----------------|
D|-4-0---2-4---0---|
A|-----0-----2---0-|
E|-----------------|
 D6/G    D6/A
4 times
D6    Daug
4 times
Repeat outro chords, resolve on D6

Keep right, keep right A7s can be played thusly,ascending

e|----0--0--0-|
B|----2--3--5-|
G|----0--0--0-|
D|----2--4--5-|
A|----0--0--0-|
E|----x--x--x-|

************************************

| x  Dead note

************************************

            
            
Suggest correction
Creating personal tab
Creating personal tab
You can edit any tab online and save it as your Personal.

You can edit, replace or remove any tab part or add personal notes – all changes will be seen only by you.

Personal tabs can be accessed anytime from any device, even offline.
Learn more »
Give kudos to tab author, rate the tab!
1 2 3 4 5
comments
print report bad tab
guest
You may want to rate the tab now too:
select rating
Wanna post a correction for this tab? Suggest correction