Oops, an error
Loading. Please wait.

School Of Rock Tab

version 1
version 1

Intro

Whole song

Interactive

30,569 views 3 this week
8 commentsread comments
1 2 3 4 5
x 14
add to favorites
launch autoscroll
font size
0
reset
how to read this tab
guitar tuner
Autoscroll
slow
fast
+/-
esc
set tempo
stop
Help us to improve Ultimate-Guitar.com Take our survey!
×
Author

intro
e-------------------------------------------------------------
B-------------------------------------------------------------
G--7-----------------7-7-7------------------------------------
D--7-let ring--x2----7-7-7-let ring--x2-----------------------
A--5-----------------5-5-5------------------------------------
E-------------------------------------------------------------

verse
e-------------------------------------------------------------
B-------------------------------------------------------------
G--7-7-7-7---5-5-5-5---4-4-4-4--------------------------------
D--7-7-7-7---5-5-5-5---4-4-4-4--------------------------------
A--5-5-5-5---3-3-3-3---2-2-2-2--------------------------------
E-------------------------------------------------------------
Suggest correction
comments
print report bad tab
8 comments total. Showing first comments.
0 reply
Icex999 193 Oct 16, 2003 12:00 AM

I think the chord progression is D5 (played as xx023x), Cadd9 (x3203x), G (320033).

0 reply
Daniel182col 285 Jul 23, 2004 12:00 AM

you suck!

+1 reply
C3_Rocka 11 Apr 12, 2005 12:00 AM

this sucks like a sack of bollocks

guest
You may want to rate the tab now too:
select rating
Wanna post a correction for this tab? Suggest correction