Oops, an error
Loading. Please wait.

School Of Rock Bass Tab

version 2
version 2

Whole song

Interactive

5,800 views 6 this week
3 commentsread comments
1 2 3 4 5
x 3
add to favorites
launch autoscroll
font size
0
reset
guitar tuner
Autoscroll
slow
fast
+/-
esc
set tempo
stop
Help us to improve Ultimate-Guitar.com Take our survey!
×
Difficulty
novice
Album: School Of Rock
Title:      "
Artist:     "
Composer: Tenacious D


Intro:
G:-----------------------------------------------|
D:-----------------------------------------------|
A:--5~--5~--5-5-5-5--5-5-5-5---------------------|
E:-----------------------------------------------|

G:-----------------------------------------------|
D:-----------------------------------------------|
A:--5~--3~--2~--3~--5~--3~--2~--3~---------------|
E:-----------------------------------------------|

Verse:
G:-----------------------------------------------|
D:-----------------------------------------------|
A:--5~--3~--2~--3~--5~--3~--2~--3~---------------|
E:-----------------------------------------------|

G:-----------------------------------------------|
D:-----------------------------------------------|
A:--5555-3333-2222-3333-5555-3333----------------|(with drums)
E:-----------------------------------------------|

Bridge/Pre-Chorus:
G:-----------------------------------------------|
D:-----------------------------------------------|
A:-----------------------------------------------|
E:--3333333333333333-----------------------------|

Chorus:
G:--------------------------5--7--5--7------------|
D:--------------------5--7--------------7--5------|(here i improvise;-))
A:--5-55555--7-777777-----------------------------|
E:------------------------------------------------|

G:-----------------------------------------------|
D:-----------------------------------------------|
A:--5-55555--7-777777----------------------------|
E:----------------------3333333333333333---------|

Break

During Solo:

G:-----------------------------------------------|
D:-----------------------------------------------|
A:--5555-3333-2222-3333-5555-3333-2222-3333------|
E:-----------------------------------------------|

Verse:
G:-----------------------------------------------|
D:-----------------------------------------------|
A:--5555-3333-2222-3333-5555-3333-2222-3333------|(during the woman)
E:-----------------------------------------------|

G:-----------------------------------------------|
D:-----------------------------------------------|
A:--5555-3333-2222-3333-5555-3333----------------|
E:-----------------------------------------------|

Bridge/Pre-Chorus:
G:-----------------------------------------------|
D:-----------------------------------------------|
A:-----------------------------------------------|
E:--3333333333333333-----------------------------|

Chorus:
G:--------------------------5--7--5--7-----------|
D:--------------------5--7--------------7--5-----|
A:--5-55555--7-777777----------------------------|
E:-----------------------------------------------|(x3)

G:-----------------------------------------------|
D:-----------------------------------------------|
A:--5-55555--7-777777----------------------------|
E:----------------------3333333333333333---------|

Break

(after oohhh yeeahhh)
G:-----------------------------------------------|
D:-----------------------------------------------|
A:--5-5-5-5-(drums)-5-5-5-5-(drums)--------------|(x2)
E:-----------------------------------------------|

Solo2/End:

G:-----------------------------------------------|
D:-----------------------------------------------|
A:--5555-3333-2222-3333-5555-3333-2222-3333------|
E:-----------------------------------------------|

It's my first Tab and i play since Feb2007
Suggest correction
Give kudos to tab author, rate the tab!
1 2 3 4 5
comments
print report bad tab
3 comments total.
0 reply
white falcon119 10 Mar 23, 2008 07:26 AM

nice tab mate, very good first attempt

0 reply
jonny1468 30 May 08, 2009 06:14 PM

i think the intro should be

A| 5~ 3~ 2~ 3~

or sumthing

0 reply
jonny1468 30 May 08, 2009 06:16 PM

oops u already put tht
haaa dint see it

guest
You may want to rate the tab now too:
select rating
Wanna post a correction for this tab? Suggest correction