Oops, an error
Loading. Please wait.

Bury The Tooth Of The Hydra And A Skeleton Army Will Arise intro tab

version 1
version 1

Intro

400 views 3 this week
1 commentread comment
1 2 3 4 5
1 last vote to show rating
add to favorites
×
Save as Personal and add changes to this tab that will be seen only by you. Learn more ›
×
You can save this tab as Personal to edit and correct it or add notes. All changes will be seen only by you. Learn more »
launch autoscroll
font size
0
reset
how to read this tab
guitar tuner
edit
Autoscroll
slow
fast
+/-
esc
set tempo
stop
Well i was hoping for some one to have already figured out a tab for this song but when 
saw that no one had i was sad so i tried figuring out the begining even though i suck at 
kind of thing but i think i got close.

standard tunning
(eadgbe)

6]-000-------------333-555-3-2-000-------------333-555-3-2-0----|
5]-222-222-333-2-0-555-777-5-4-222-222-333-2-0-555-777-5-4-2----|
4]-222-444-555-4-2-555-777-5-4-222-444-555-4-2-555-777-5-4-2----|
3]-----444-555-4-2-----------------444-555-4-2------------------|
2]--------------------------------------------------------------|
1]--------------------------------------------------------------|

i know its a little bit and may be its not right but it works for a start.
If you know the rest or feel its wrong feel free to comment or just tab your own tab 
continue the tab)

            
            
Suggest correction
Creating personal tab
Creating personal tab
You can edit any tab online and save it as your Personal.

You can edit, replace or remove any tab part or add personal notes – all changes will be seen only by you.

Personal tabs can be accessed anytime from any device, even offline.
Learn more »
Give kudos to tab author, rate the tab!
1 2 3 4 5
comments
print report bad tab
1 comment total.
0 reply
ascarymovie 193 Feb 16, 2010 03:43 PM

well it is some what close i guess o_O

e----------------------------------------------------------
b----------------------------------------------------------
g---------9-9-9/10-10-10/9-9/7-7-----------5-5-5/7-7-7/5-5/
d-7-7-7-7-9-9-9/10-10-10/9-9/7-7--3-3-3-3--5-5-5/7-7-7/3-3/
a-7-7-7-7-7-7-7/8--8--8-/7-7/5-5--3-3-3-3--3-3-3/5-5-5/3-3/
e-5-5-5-5-------------------------1-1-1-1------------------

e-----|and thats pretty much correct i know it seems like
b-----|a lot of strums but thats how i heard it when i
g-4-4-|slowed down the track :) he he
d-4-4-|you did good though :)
a-2-2-|
e-----|

guest
Wanna post a correction for this tab? Suggest correction