Oops, an error
Loading. Please wait.

Lonely Again tab

459 views 3 this week
no commentswrite comment
1 2 3 4 5
3 more votes to show rating
add to favorites
×
Save as Personal and add changes to this tab that will be seen only by you. Learn more ›
×
You can save this tab as Personal to edit and correct it or add notes. All changes will be seen only by you. Learn more »
launch autoscroll
font size
0
reset
how to read this tab
guitar tuner
edit
Autoscroll
slow
fast
+/-
esc
set tempo
stop
Tabbed by: Shelley
Email: shelleykicksbutt@gmail.com

Tuning:Standard

I put this up before, but it was only chords, which sucked. This is the TAB!
INTRO(x2)
e|--------------------------3------------------------------------------------|
B|------1-0--(x4)---------3---(x4)-------------------------------------------|
G|---2------------------0----------------------------------------------------|
D|---------------------------------------------------------------------------|
A|---------------------------------------------------------------------------|
E|---------------------------------------------------------------------------|

Verses
e|-----------------------3-----------1-----------3---------------------------|
B|--------1-0-(x4)-----3---(x4)----3---(x4)----3---(x4)----------------------|
G|-----2-------------0-----------2-----------0-------------------------------|
D|---------------------------------------------------------------------------|
A|---------------------------------------------------------------------------|
E|---------------------------------------------------------------------------|

I could see from the driveway the house was still dark
Things don't feel like they did
I don't like coming home like this

I've been waiting all night
For your feeding shadow
Under the door or
Footsteps 'round the corner

Chorus (strumming chords)
 C               G         Dm          G
It feels like we live in a slow-motion movie
C              G
Pin drops, and silent
    Dm            G       C     G    Dm
You leave feeling lonely again
    G       C     G   Dm    G
I'm lonely again

Verse (Same as above)

I don't think we can hang on much longer
'Cause we're sinking fa-ster
We can tread water

Chorus

Bridge (strumming again)
Am                                 Em
  Don't you remember that I'm still here?
               Am
  Who's waking up to you?
              Dm
  Who's making love.... to you?

Chorus x2  (there's some finger-picking here that I haven't figured out, so I just do 
chords. If you have this tabbed out please let me know!)

I hope this is pretty close to correct! Happy playing!
Suggest correction
Creating personal tab
Creating personal tab
You can edit any tab online and save it as your Personal.

You can edit, replace or remove any tab part or add personal notes – all changes will be seen only by you.

Personal tabs can be accessed anytime from any device, even offline.
Learn more »
Give kudos to tab author, rate the tab!
1 2 3 4 5
comments
print report bad tab
guest
You may want to rate the tab now too:
select rating
Wanna post a correction for this tab? Suggest correction