Oops, an error
Loading. Please wait.

Any Which Way bass

2,419 views 1 this week
no commentswrite comment
1 2 3 4 5
1 last vote to show rating
add to favorites
×
Save as Personal and add changes to this tab that will be seen only by you. Learn more ›
×
You can save this tab as Personal to edit and correct it or add notes. All changes will be seen only by you. Learn more »
launch autoscroll
font size
0
reset
guitar tuner
edit
Autoscroll
slow
fast
+/-
esc
set tempo
stop
Band: Scissor Sisters
Song: Any Which Way
Album: Night Work (2010)
Bassist: Babydaddy
Tuning: Half Step Down

I made this tab just because of the chorus. I know that he plays it 
differently (if You watch any live performance) but this seems to be bass 
line if listen album. Anyway - it's fun to play it.

[0:14] Intro and verse:

Gb|--6---9---6---9-|
Db|----------------|
Ab|4---7---4---7---|
Eb|----------------| Play these till next part

[0:37]

Gb|--6---9-----------6---9---11----12-|
Db|----------6---9--------------------|
Ab|4---7-----------4---7---9----10----|
Eb|--------4---7----------------------| Play this part till chorus

[1:08] Chorus: not sure about precision but it sounds like on record.

Gb|---6-----------11-----13--|-------------------------|
Db|------------------------9-|11--------9----6-4---6-4-|
Ab|4-----7-----9-----9h11----|-------------------------|
Eb|---------0----------------|----9--7-----4-----44----|

Gb|--------------------------|---6--------11---13------|
Db|---4-----7--6---------5---|-----------------------9-|
Ab|2-------------------------|4-----7-7/9---11----11---|
Eb|-2----5-------44/(7)7---7-|-------------------------|

Play Chorus 4 times. Listen closely and I'm sure that soon You'll get it!

[1:40] Play first verse part till next Chorus.
[2:11] Play Chorus twice.
[2:28] Play second part of verse:
[2:52 - 3:07] No bass
[3:07] Play chorus
[3:38 - 4:09] No bass
[4:09] Chorus again till the end.

You can quietly play something like this when there's no bass.

G|------------------|  
D|.-.-.-.-.-.-.--.--|
A|4-4-7-7-9-9-10-10-|
E|------------------|  

/  slide up
\  slide down
h  hammer-on
p  pull-off
~  let ring
.  staccato

            
            
Suggest correction
Creating personal tab
Creating personal tab
You can edit any tab online and save it as your Personal.

You can edit, replace or remove any tab part or add personal notes – all changes will be seen only by you.

Personal tabs can be accessed anytime from any device, even offline.
Learn more »
Give kudos to tab author, rate the tab!
1 2 3 4 5
comments
print report bad tab
guest
You may want to rate the tab now too:
select rating
Wanna post a correction for this tab? Suggest correction