Oops, an error
Loading. Please wait.

I Cant Decide bass

3,057 views 3 this week
1 commentread comment
1 2 3 4 5
x 9
add to favorites
×
Save as Personal and add changes to this tab that will be seen only by you. Learn more ›
×
You can save this tab as Personal to edit and correct it or add notes. All changes will be seen only by you. Learn more »
launch autoscroll
font size
0
reset
guitar tuner
edit
Autoscroll
slow
fast
+/-
esc
set tempo
stop
Author
Difficulty
-------------------------------------------------------------------------------
			     I CAN'T DECIDE - Scissor Sisters
-------------------------------------------------------------------------------

Tabbed By : Hannah Salt
e-mail: iluv_kittens@hotmail.com

Tuning: Standard

It's not easy...
G|---------------------------------------------------|
D|---------------------------------------------------|
A|-3-3-3-3-3-3-3-3-----------------------------------|  x2
E|-----------------1-1-1-1-1-1-1-1-------------------|

I'm not a gangster...
G|---------------------------------------------------|
D|---------------------------------------------------|
A|---------------------------------------------------|
E|-3-3-3-3--4-4-4-4--3-3-3-3--4-4-4-4----------------|

-Pause-

*Chorus*

I can't decide...
G|---------------------------------------------------|
D|---------------------------------------------------|
A|-6-6-6-6-------------------------------------------|
E|---------3-3-3-3-4-4-4-4-1-1-1-1-------------------|

No wonder why...
G|---------------------------------------------------|
D|---------------------------------------------------|
A|-6-6-7-7----------6-6---------65-4-3---------------|
E|----------3-3-4-4-----1-1-4-6----------------------|


-Instruments-
G|---------------------------------------------------|
D|---------------------------------------------------|
A|-3-3-3-3-3-3-3-------------------------------------|
E|---------------------------------------------------|

It's a bitch...
G|---------------------------------------------------|
D|---------------------------------------------------|
A|-3-3-3-3-3-3-3-3-----------------------------------|  x2
E|-----------------1-1-1-1-1-1-1-1-------------------|

I've got to hand it...
G|---------------------------------------------------|
D|---------------------------------------------------|
A|---------------------------------------------------|
E|-3-3-3-3--4-4-4-4--3-3-3-3--4-4-4-4----------------|

-Pause-

*Chorus*

I can't decide...
G|---------------------------------------------------|
D|---------------------------------------------------|
A|-6-6-6-6-------------------------------------------|
E|---------3-3-3-3-4-4-4-4-1-1-1-1-------------------|

No wonder why...
G|---------------------------------------------------|
D|---------------------------------------------------|
A|-6-6-7-7----------6-6---------65-4-3---------------|
E|----------3-3-4-4-----1-1-4-6----------------------|

-Bridge-

Oh I could throw you in a lake...
G|---------------------------------------------------|
D|--------------------11111111-44444444--------------|
A|-33333333------------------------------------------|
E|----------11111111---------------------------------|

Oh I could bury you alive...
G|---------------------------------------------------|
D|---------------------------------------------------|
A|----------33333333-6-6-6666--2345------------------|
E|-33333333------------------------------------------|

-Pause-

*Chorus*

I can't decide...
G|---------------------------------------------------|
D|---------------------------------------------------|
A|-6-6-6-6-------------------------------------------|
E|---------3-3-3-3-4-4-4-4-1-1-1-1-------------------|

No wonder why...
G|---------------------------------------------------|
D|---------------------------------------------------|
A|-6-6-7-7----------6-6---------65-4-3---------------|
E|----------3-3-4-4-----1-1-4-6----------------------|


Lyrics:

It's not easy having yourself a good time
Greasing up those bets and betters
Watching out they don't four-letter
Fuck and kiss you both at the same time
Smells like something I've forgotten
Curled up died and now it's rotten

I'm not a gangster tonight
Don't want to be a bad guy
I'm just a loner baby
And now you've got in my way

I can't decide
Whether you should live or die
Oh, you'll probably go to heaven
Please don't hang your head and cry
No wonder why
My heart feels dead inside
It's cold and hard and petrified
Lock the doors and close the blinds
We're going for a ride

It's a bitch convincing people to like you
If I stop now call me a quitter
If lies were cats you'd be a litter
Pleasing everyone isn't like you
Dancing jigs until I'm crippled
Slug ten drinks I won't get pickled

I've got to hand it to you
You've played by all the same rules
It takes the truth to fool me
And now you've made me angry

I can't decide
Whether you should live or die
Oh, you'll probably go to heaven
Please don't hang your head and cry
No wonder why
My heart feels dead inside
It's cold and hard and petrified
Lock the doors and close the blinds
We're going for a ride

Oh I could throw you in the lake
Or feed you poisoned birthday cake
I wont deny I'm gonna miss you when you're gone
Oh I could bury you alive
But you might crawl out with a knife
And kill me when I'm sleeping
That's why

I can't decide
Whether you should live or die
Oh, you'll probably go to heaven
Please don't hang your head and cry
No wonder why
My heart feels dead inside
It's cold and hard and petrified
Lock the doors and close the blinds
We're going for a ride

            
            
Suggest correction
Creating personal tab
Creating personal tab
You can edit any tab online and save it as your Personal.

You can edit, replace or remove any tab part or add personal notes – all changes will be seen only by you.

Personal tabs can be accessed anytime from any device, even offline.
Learn more »
comments
print report bad tab
1 comment total.
0 reply
GrunnyRiku 197 May 15, 2010 04:42 AM

BAD!!! alot of the notes are missing! DO NOT USE!!!

guest
You may want to rate the tab now too:
select rating
Wanna post a correction for this tab? Suggest correction