Oops, an error
Loading. Please wait.

I Dont Feel Like Dancin Tab

version 1
version 1

Intro

Interactive

25 views 6 this week
no commentswrite comment
1 2 3 4 5
3 more votes to show rating
add to favorites
launch autoscroll
font size
0
reset
how to read this tab
guitar tuner
Autoscroll
slow
fast
+/-
esc
set tempo
stop
Help us to improve Ultimate-Guitar.com Take our survey!
×
Author
This intro isn't on all of the versions, but it is on the version I bought on iTunes.

Standard Tuning

[Intro]

e|-----------------------------------------------------------------------------------|
B|------------------------7-/8-7-------------------------------7-/8-7-/12-10---------|
G|------7/11---------7h9---------9-7-----------7/11--------7h9-----------------------|
D|-7/9----------7/9------------------------7/9---------7/9---------------------------|
A|-----------------------------------------------------------------------------------|
E|-----------------------------------------------------------------------------------|

e|---------------------------------------7--------9--------10-------12--------14-15--|
B|-8p7----------------7-/8-7---7------7/8----8/10----10/12----12/14-----14/15--------|
G|-----9p7--------7h9--------9-------------------------------------------------------|
D|------------7/9--------------------------------------------------------------------|
A|-----------------------------------------------------------------------------------|
E|-----------------------------------------------------------------------------------|


*******************
| /  slide up
| p  pull-off
| h  hammer-on
*******************
Suggest correction
Give kudos to tab author, rate the tab!
1 2 3 4 5
comments
print report bad tab
guest
You may want to rate the tab now too:
select rating
Wanna post a correction for this tab? Suggest correction