Oops, an error
Loading. Please wait.

Laura Tab

version 1
version 1

Whole song

Interactive

15,915 views 42 this week
5 commentsread comments
1 2 3 4 5
excellent!
x 11
add to favorites
launch autoscroll
font size
0
reset
how to read this tab
guitar tuner
Tab Pro tools
  • play this tab
  • loop segment
  • change instrument
  • show fretboard
  • metronome
Autoscroll
slow
fast
+/-
esc
set tempo
stop
Contributor
-------------------------------------------------------------------------------
			     Laura - Scissor Sisters
-------------------------------------------------------------------------------
Tabbed by: James Boffin
Email: BoffyJ@hotmail.com

Tuning: Standard

Intro

   Bb			 Ab		x4
e|---------------------------|
B|.-------------------------.|
G|---------------------------|
D|--8--8--8--8--8--8--8--6---|
A|.-8--8--8--8--8--8--8--6--.|
E|--6--6--6--6--6--6--6--4---|

Riff 1 begins half way through the 4th measure

   Bb       Ab Bb		      Ab			   G
e|----------------------------------------------------------------------|
B|----------------------------------------------------------------------|
G|-------------------------------------5-5------------------------------|
D|--8p6-8p6-8p6-8--------8p6-8p6-8p6-8--------11p10-11p10-11p10-11-9-9--|
A|----------------8-8---------------------------------------------------|
E|----------------------------------------------------------------------|

		F#		      C#		    C
e|----------------------------------------------------------------------|
B|----------------------------------------------------------------------|
G|----------------------------------------------------------5-5---------|
D|--9p8-9p8-9p8-9--------8p6-8p6-8p6-8--------8p6-8p6-8p6-8-------------|
A|----------------9-9------------------8-8------------------------------|
E|----------------------------------------------------------------------|

		       B                       Bb
e|-----------------------------------------------------|
B|-----------------------------------------------------|
G|-----------------------------------------------------|
D|--11p10-11p10-11p10-11-13-13----8p6-8p6-8p6-8--------|
A|----------------------------------------------8-8----|
E|-----------------------------------------------------|

Verse - Bb  Ab G  F# 
        C#  C  B  Bb 
        C#  C  B  Bb

(The chord pattern played during the verse is practically the same as the intro)

	
Chorus - G  F  D# C
         G  F  D# C

Riff 2

e|---------------------------------------------------------------|
B|--11-11-11-11p9-11p9-11p9-11-11----9-9-9-9p7-9p7-9p7-9-9-------|
G|---------------------------------------------------------------|
D|---------------------------------------------------------------|
A|---------------------------------------------------------------|
E|---------------------------------------------------------------|

e|-----------------------------------9-9-9-----------------------|
B|--11-11-11-11p9-11p9-11p9-11-11----------11p9-11p9-11p9-11-11--|
G|---------------------------------------------------------------|
D|---------------------------------------------------------------|
A|---------------------------------------------------------------|
E|---------------------------------------------------------------|

Riff 3 (with wah)

e|------------------9-11—11b--|
B|--9h11-11-11-9h11-----------|
G|----------------------------|
D|----------------------------|
A|----------------------------|
E|----------------------------|

Riff 4 (plays during the final chorus)

e|--11b-11-9----9-11b-11-9-----|
B|-----------11------------11--|
G|-----------------------------|
D|-----------------------------|
A|-----------------------------|
E|-----------------------------|

Outro - same chords as chorus
      - a sax solo plays over the top

I hope this tab has been bare useful

Thanx 4 viewing

Joffy Bay

| /  slide up
| h  hammer-on
| p  pull-off
| b  bend
===============================================================================
comments
print report bad tab
5 comments total. Showing first comments.
0 reply
funeralforafrie wrote on August 1 2004, 12:00 am

great

0 reply
SsPunk wrote on August 5 2004, 12:00 am

ffuunneerraallffoorraaffrriiee iiss riigghht.. SSttuuppiidd kkeeyybbaaoorrdd

0 reply
battleofla wrote on August 5 2004, 12:00 am

Great tab!

I want to post or [tab]
guest
You may want to rate the tab now too:
select rating
Please do not post tabs as comments. Select "correction" instead!