Oops, an error
Loading. Please wait.

Laura bass

version 2
version 2

Whole song

Interactive

4,283 views 6 this week
2 commentsread comments
1 2 3 4 5
x 7
add to favorites
×
Save as Personal and add changes to this tab that will be seen only by you. Learn more ›
×
You can save this tab as Personal to edit and correct it or add notes. All changes will be seen only by you. Learn more »
launch autoscroll
font size
0
reset
guitar tuner
edit
Autoscroll
slow
fast
+/-
esc
set tempo
stop
Author
Tuning: normal
Verse
G|---------------------------------------------------------------------------|
D|--8-----8-----8-----8-----8-----8-----6-----6-----5-----5-----4-----4------|
A|-----8-----8-----8-----8-----8-----8-----6-----6-----5-----5-----4-----4---|
E|---------------------------------------------------------------------------|

G|---------------------------------------------------------------------------|
D|--11------11------10------10------9-----9-----8-----8-----8-----8-----6----|
A|------11------11------10------10-----9-----9-----8-----8-----8-----8-----6-|
E|---------------------------------------------------------------------------|

G|---------------------------------------------------------------------------|
D|--6-----5-----5-----4-----4-----11------11------10------10------9-----9----|
A|-----6-----5-----5-----4-----4------11------11------10------10-----9-----9-|
E|---------------------------------------------------------------------------|

G|---------------------------------------------------------------------------|
D|--8-----8-----11------11-----10------10------9-----9-----8-----8-----------|
A|-----8-----8------11------11-----10------10-----9-----9-----8-----8--------|
E|---------------------------------------------------------------------------|

Chorus
G|---------------------------------------------------------------------------|
D|--5-5-5-5-5-5-5-5-3-3-3-3-3-3-3-3-3---------------------------------5-5-5-5|
A|------------------------------------1-1-1-1-1-1-1-1-3-3-3-3-3-3-3-3--------|
E|---------------------------------------------------------------------------|

G|---------------------------------------------------------------------------|
D|-5-5-5-5-3-3-3-3-3-3-3-3---------------------------------------------------|
A|-------------------------1-1-1-1-1-1-1-1-3*--------------------------------|
E|---------------------------------------------------------------------------|

Verse 2
G|---------------------------------------------------------------------------|
D|--8-----8-----6-----6-----5-----5-----4-----4------------------------------|
A|-----8-----8-----6-----6-----5-----5-----4-----4---------------------------|
E|---------------------------------------------------------------------------|

G|---------------------------------------------------------------------------|
D|--11------11------10------10------9-----9-----8-----8-----8-----8-----6----|
A|------11------11------10------10-----9-----9-----8-----8-----8-----8-----6-|
E|---------------------------------------------------------------------------|

G|---------------------------------------------------------------------------|
D|--6-----5-----5-----4-----4-----11------11------10------10------9-----9----|
A|-----6-----5-----5-----4-----4------11------11------10------10-----9-----9-|
E|---------------------------------------------------------------------------|

G|---------------------------------------------------------------------------|
D|--8-----8-----11------11-----10------10------9-----9-----8-----8-----------|
A|-----8-----8------11------11-----10------10-----9-----9-----8-----8--------|
E|---------------------------------------------------------------------------|
 Repeat this verse and then go into
Chorus
G|---------------------------------------------------------------------------|
D|--5-5-5-5-5-5-5-5-3-3-3-3-3-3-3-3-3---------------------------------5-5-5-5|
A|------------------------------------1-1-1-1-1-1-1-1-3-3-3-3-3-3-3-3--------|
E|---------------------------------------------------------------------------|

G|------------------------------------------------------------------------------------|
D|-5-5-5-5-3-3-3-3-3-3-3-3------------------------------------------------------------|
A|-------------------------1-1-1-1-1-1-1-1-3-3-3-3-3-3-3-3R---------------------------|
E|------------------------------------------------------------------------------------|

Last bit
G|---------------------------------------------------------------------------|
D|--5-5-5-5-5-5-5-5-3-3-3-3-3-3-3-3-3---------------------------------5-5-5-5|
A|------------------------------------1-1-1-1-1-1-1-1-3-3-3-3-3-3-3-3--------|
E|---------------------------------------------------------------------------|

G|---------------------------------------------------------------------------|
D|-5-5-5-5-3-3-3-3-3-3-3-3---------------------------------5-5-5-5-5-5-5-5-3-|
A|-------------------------1-1-1-1-1-1-1-1-3-3-3-3-3-3-3-3-------------------|
E|---------------------------------------------------------------------------|

G|-----------------------------------|
D|-3-3-3-3-3-3-3---------------------|
A|---------------1-1-1-1-1-1-1-1-3-3-|
E|-----------------------------------|

| R  Rest
| *  let note ring
| /  slide up
| \  slide down
| h  hammer-on
| p  pull-off
| ~  vibrato
| +  harmonic
| x  Mute note

            
            
Suggest correction
Creating personal tab
Creating personal tab
You can edit any tab online and save it as your Personal.

You can edit, replace or remove any tab part or add personal notes – all changes will be seen only by you.

Personal tabs can be accessed anytime from any device, even offline.
Learn more »
comments
print report bad tab
2 comments total.
0 reply
Emmi 52 Dec 14, 2006 10:40 AM

I think the A|11111111 in the chorus should be A|66666666

Otherwise fine tab

0 reply
austieman 47 Aug 09, 2009 08:25 AM

sounds spot on to me....Good stuff!

guest
You may want to rate the tab now too:
select rating
Wanna post a correction for this tab? Suggest correction