Oops, an error
Loading. Please wait.

After The Lights Go Down Low Bass Tab

400 views 1 this week
no commentswrite comment
1 2 3 4 5
3 more votes to show rating
add to favorites
launch autoscroll
font size
0
reset
guitar tuner
×
Best way to learn
"After The Lights Go Down Low"
Autoscroll
slow
fast
+/-
esc
set tempo
stop
Here is a bass tab that I tabbed out... it is "When The Lights Go Down
Low" by the Scofflaws.
Title : "After the Lights Go Down Low" by the Scofflaws
Tab by: Skankordie (the tamest rudegrrrl)
E-mail: nukunuku777@yahoo.com

E|-----1-1-3-4-5-------1-1-0-0---------
A|-3-3-----------2-3-3---------3-2---2-  Intro
D|---------------------------------3---
G|-------------------------------------

E|-------0-------0-5-3-2-0----------------- |
A|---2-3-----2-3--------------------------- |
D|-3-------3---------------3-1-0-------0-3- |
G|-------------------------------3-1-1----- |
                                            |
E|---1-0-------0-2-0---------|------0---    |
A|-3-----3---2---------------|----0---0-    |
D|---------3---------3-1-0---|--2-------    | Verse
G|-------------------------4-|3---------    | (the stuff after the
                                            | dotted line is repeated
E|-----------------------                   | at the end of the song)
A|-----------1-3-5-------                   |
D|-----2-2-3-------1-2-3-                   |
G|-3-3-------------------                   |

E|--------7-----------7--------------------- |
A|---7-10---10---7-10---10------------------ |
D|-8-----------8-------------7-10-8-7------- |
G|-------------------------8----------6-5-5- |
                                             | Bridge
E|-------------------------(2nd time)------  | (play the stuff in
A|-------2-2-2-3-3-3-4-4-(5-5-3-3-2-2-0-0)-  | parenthesis the second
D|-5-5-5--------------------------0-1-2----  | time through that part)
G|-----------------------15==>3-3----------  |

Okay... after the first time of playing all the way throught
this, it goes into variations of what was already played, but
playing this all the way through works...

Order of Operations:
Intro
Verse
Bridge
Verse
Bridge
Verse
Stuff after the dotted line
THE END

This is the second bass tab I've ever made... how'd I do?
Want an epal?  Email me.  Got corrections?  Send em.
And Shtuff.  Or something. 
Suggest correction
Give kudos to tab author, rate the tab!
1 2 3 4 5
comments
print report bad tab
guest
You may want to rate the tab now too:
select rating
Wanna post a correction for this tab? Suggest correction